Home » I » Iron Maiden »

Iron Maiden - Strange World Drum

Artists:  A B C D E F G H I J K L M N O P Q R S T U V W X Y Z # 

Strange World Drum

(ver. 1) Click to play this song!
Iron Maiden
 Rating:
3.9/5 (20 votes)
                         Intro                                                         
                                      |----3----|                       
     S    W.                    E     S    S    S    E     E     Q      
C||----|-------------------|--(51)--(51)-(51)-(51)-(51)--(51)--(51)----|
C||----|-------------------|-------------------------------------------|
C||----|-------------------|-------------------------------------------|
C||----|-------------------|-------------------------------------------|
C||----|-------------------|-------------------------------------------|
C||----|-------------------|-------------------------------------------|


                  |----3----|                              |----3----|          
    Q       E     S    S    S    E     E     Q       E     S    S    S    E     
--(51)----(51)--(51)-(51)-(51)-(51)--(51)--(51)----(51)--(51)-(51)-(51)-(51)--(5
--------------------------------------------------------------------------------
--------------------------------------------------------------------------------
--------------------------------------------------------------------------------
--------------------------------------------------------------------------------
--------------------------------------------------------------------------------


                  |----3----|                              |----3----|          
    Q       E     S    S    S    E     E     Q       E     S    S    S    E     
--(51)----(51)--(51)-(51)-(51)-(51)--(51)--(51)----(51)--(51)-(51)-(51)-(51)--(5
--------------------------------------------------------------------------------
--------------------------------------------------------------------------------
--------------------------------------------------------------------------------
--------------------------------------------------------------------------------
--------------------------------------------------------------------------------


                  |----3----|                              |----3----|          
    Q       E     S    S    S    E     E     Q       E     S    S    S    E     
--(51)----(51)--(51)-(51)-(51)-(51)--(51)--(51)----(51)--(51)-(51)-(51)-(51)--(5
--------------------------------------------------------------------------------
--------------------------------------------------------------------------------
--------------------------------------------------------------------------------
--------------------------------------------------------------------------------
--------------------------------------------------------------------------------


          |----3----|                       
    E     S    S    S    E     E     Q      
--(51)--(51)-(51)-(51)-(51)--(51)--(51)----|
-------------------------------------------|
-------------------------------------------|
-------------------------------------------|
-------------------------------------------|
-------------------------------------------|


                  |----3----|                              |----3----|          
    Q       E     S    S    S    E     E     Q       E     S    S    S    E     
--(36)----(51)--(51)-(51)-(51)-(51)--(51)--(51)----(51)--(51)-(51)-(51)-(51)--(5
--(46)--------------------------------------------------------------------------
--------------------------------------------------------------------------------
--------------------------------------------------------------------------------
--------------------------------------------------------------------------------
--------------------------------------------------------------------------------


                  |----3----|                              |----3----|          
    Q       E     S    S    S    E     E     Q       E     S    S    S    E     
--(51)----(51)--(51)-(51)-(51)-(51)--(51)--(51)----(51)--(51)-(51)-(51)-(51)--(5
--------------------------------------------------------------------------------
--------------------------------------------------------------------------------
--------------------------------------------------------------------------------
--------------------------------------------------------------------------------
--------------------------------------------------------------------------------


                  |----3----|                              |----3----|          
    Q       E     S    S    S    E     E     Q       E     S    S    S    E     
--(36)----(51)--(51)-(51)-(51)-(51)--(51)--(36)----(51)--(51)-(51)-(51)-(51)--(5
--(46)-------------------------------------(46)---------------------------------
--------------------------------------------------------------------------------
--------------------------------------------------------------------------------
--------------------------------------------------------------------------------
--------------------------------------------------------------------------------


    Q       Q       Q      
--(36)----(36)----(36)----|
--(46)----(46)----(46)----|
--------------------------|
--------------------------|
--------------------------|
--------------------------|


                  |----3----|                              |----3----|          
    Q       E     S    S    S    E     E     Q       E     S    S    S    E     
--(36)----(51)--(51)-(51)-(51)-(51)--(51)--(51)----(51)--(51)-(51)-(51)-(51)--(5
--(46)--------------------------------------------------------------------------
--------------------------------------------------------------------------------
--------------------------------------------------------------------------------
--------------------------------------------------------------------------------
--------------------------------------------------------------------------------


    Q       E     E     E     E    E   E   E    E     E     E    
--(36)----(48)--(48)--(48)--(48)--48--48--48---48----48----48---|
--(46)----------------------------------------(36)--(36)--(36)--|
----------------------------------------------------------------|
----------------------------------------------------------------|
----------------------------------------------------------------|
----------------------------------------------------------------|


                |----3----|                              |----3----|            
   Q      E     S    S    S    E     E     Q       E     S    S    S    E     E 
--36----(51)--(51)-(51)-(51)-(51)--(51)--(51)----(51)--(51)-(51)-(51)-(51)--(51)
--46----------------------------------------------------------------------------
--------------------------------------------------------------------------------
--------------------------------------------------------------------------------
--------------------------------------------------------------------------------
--------------------------------------------------------------------------------


          |----3----|                       
    E     S    S    S    E     E     Q      
--(51)--(51)-(51)-(51)-(51)--(51)--(51)----|
-------------------------------------------|
-------------------------------------------|
-------------------------------------------|
-------------------------------------------|
-------------------------------------------|


                |----3----|                        |----3----|           
   Q      E     S    S    S   E   E   Q      E     S    S    S   E   E   
--36----(51)--(48)-(48)-(48)-48--47--36----(51)--(48)-(48)-(48)-48--47--|
--46---------------------------------46---------------------------------|
------------------------------------------------------------------------|
------------------------------------------------------------------------|
------------------------------------------------------------------------|
------------------------------------------------------------------------|


   Solo 1 Adrian Smith                                                 
                             |--3--|                                   
   Q                    E    S  S  S  E   E   E   E   E   E      Q     
--36------------------(51)--48-48-48-48--47--48--47--45--43--38g38----|
--46-----------------------------------------36-----------------------|
----------------------------------------------------------------------|
----------------------------------------------------------------------|
----------------------------------------------------------------------|
----------------------------------------------------------------------|


   Q     Q     E   E   Q     Q     Q     
--36----44----44--36--38----44----44----|
--44----51----51--44--44----51----51----|
--49------------------------------------|
----------------------------------------|
----------------------------------------|
----------------------------------------|


   Q     Q     E   E   Q     Q     Q        Q     Q     Q     Q     Q     Q     
--36----44----44--36--38----44----44----|--36----44----44----38----44----44----|
--44----51--------44--44----51----59----|--44----51----51----44----51----51----|
----------------------------------------|--------------------------------------|
----------------------------------------|--------------------------------------|
----------------------------------------|--------------------------------------|
----------------------------------------|--------------------------------------|


   Q     E   E   E   E   E   E   E   E   E   E   
--36----44--38--38--38--48--47--48--47--45--43--|
--44--------------------------------------------|
------------------------------------------------|
------------------------------------------------|
------------------------------------------------|
------------------------------------------------|


   Q     Q     Q     Q     Q     Q        Q     Q     Q     Q     Q     Q     
--36----44----44----38----44----44----|--36----44----44----38----44----44----|
--44----51----51----44----51----59----|--44----51----51----44----51----59----|
--49----------------------------------|--------------------------------------|
--------------------------------------|--------------------------------------|
--------------------------------------|--------------------------------------|
--------------------------------------|--------------------------------------|


   Q     Q     Q     Q     Q     Q     
--36----44----44----38----44----44----|
--44----51----51----44----51----51----|
--------------------------------------|
--------------------------------------|
--------------------------------------|
--------------------------------------|


   E   E   E   E   E   E   E   E   E   E   E   E   
--38--38--36--38--38--48--47--45--43--41--43--41--|
--44----------44----------------------------------|
--------------------------------------------------|
--------------------------------------------------|
--------------------------------------------------|
--------------------------------------------------|


   Q     Q     Q     Q     Q     Q        Q     Q     Q     Q     Q     Q     
--36----44----44----38----44----44----|--36----44----44----38----44----44----|
--44----51----51----44----51----51----|--44----51----51----44----51----51----|
--49----------------------------------|--------------------------------------|
--------------------------------------|--------------------------------------|
--------------------------------------|--------------------------------------|
--------------------------------------|--------------------------------------|


   Q     Q     Q     Q     Q     Q     
--36----44----44----38----44----44----|
--44----51----51----44----51----51----|
--------------------------------------|
--------------------------------------|
--------------------------------------|
--------------------------------------|


   Q     Q     Q     Q        E   E   E   E   
--36----44----44----38----48g47--45--43--41--|
--44----51----51----44-----------------------|
---------------------------------------------|
---------------------------------------------|
---------------------------------------------|
---------------------------------------------|


   Q     Q     Q     Q     Q     Q        Q     Q     Q     Q     Q     Q     
--36----44----44----38----44----44----|--36----44----44----38----44----44----|
--44----51----51----44----51----51----|--44----51----51----44----51----51----|
--49----------------------------------|--------------------------------------|
--------------------------------------|--------------------------------------|
--------------------------------------|--------------------------------------|
--------------------------------------|--------------------------------------|


   Q     Q     Q     Q     Q     Q        Q     Q     Q     Q     Q     Q     
--36----44----44----38----44----44----|--36----44----44----38----44----44----|
--44----51----51----44----51----51----|--44----51----51----44----51----51----|
--------------------------------------|--------------------------------------|
--------------------------------------|--------------------------------------|
--------------------------------------|--------------------------------------|
--------------------------------------|--------------------------------------|


   Verso Riff                                 
   Q          Q     E   E   Q     Q     Q     
--36---------44----44--36--38----44----44----|
--44-------------------44--44----------------|
--49-----------------------------------------|
---------------------------------------------|
---------------------------------------------|
---------------------------------------------|


   Q     Q     E   E   Q     Q     Q        Q     Q     Q     Q     Q     Q     
--36----44----44--36--38----44----44----|--36----44----44----38----44----44----|
--44--------------44--44----------------|--44----------------44----------------|
----------------------------------------|--------------------------------------|
----------------------------------------|--------------------------------------|
----------------------------------------|--------------------------------------|
----------------------------------------|--------------------------------------|


   Q     Q     Q     Q     E   E   E   E   
--36----44----44----38----47--45--43--41--|
--44----------------44--------------------|
--------------------55--------------------|
------------------------------------------|
------------------------------------------|
------------------------------------------|


   Q     Q     E   E   Q     Q     Q     
--36----44----44--36--38----44----44----|
--44--------------44--44----------------|
--49------------------------------------|
----------------------------------------|
----------------------------------------|
----------------------------------------|


   Q     Q     E   E   Q     Q     Q        Q     Q     Q     Q     Q     Q     
--36----44----44--36--38----44----44----|--36----44----44----38----44----44----|
--44--------------44--44----------------|--44----------------44----------------|
----------------------------------------|--------------------------------------|
----------------------------------------|--------------------------------------|
----------------------------------------|--------------------------------------|
----------------------------------------|--------------------------------------|


   Q     Q     Q     Q     Q     Q        Q     Q     E   E   Q     Q     Q     
--36----44----44----38----44----44----|--36----44----44--36--38----44----44----|
--44----------------44----------------|--44--------------44--44----------------|
--------------------------------------|--49------------------------------------|
--------------------------------------|----------------------------------------|
--------------------------------------|----------------------------------------|
--------------------------------------|----------------------------------------|


   Q     Q     E   E   Q     Q     Q        Q     Q     Q     Q     Q     Q     
--36----44----44--36--38----44----44----|--36----44----44----38----44----44----|
--44--------------44--44----------------|--44----------------44----------------|
----------------------------------------|--------------------------------------|
----------------------------------------|--------------------------------------|
----------------------------------------|--------------------------------------|
----------------------------------------|--------------------------------------|


   Q     Q     Q     E   E   E   E   E   E   
--36----44----44----38--38--48--47--45--43--|
--44----------------44----------------------|
--------------------------------------------|
--------------------------------------------|
--------------------------------------------|
--------------------------------------------|


   Q     Q     E   E   Q     Q     Q     
--36----44----44--36--38----44----44----|
--44--------------44--44----------------|
--49------------------------------------|
----------------------------------------|
----------------------------------------|
----------------------------------------|


   Q     Q     E   E   Q     Q     Q        Q     Q     Q     Q     Q     Q     
--36----44----44--36--38----44----44----|--36----44----44----38----44----44----|
--44--------------44--44----------------|--44----------------44----------------|
----------------------------------------|--------------------------------------|
----------------------------------------|--------------------------------------|
----------------------------------------|--------------------------------------|
----------------------------------------|--------------------------------------|


                                            Break             
   Q     Q     Q     Q     Q     E   E      W.                
--36----44----44----38----36----47--45--|--36----------------|
--44----------------44----44------------|--44----------------|
--------------------55----55------------|--49----------------|
----------------------------------------|--------------------|
----------------------------------------|--------------------|
----------------------------------------|--------------------|


  W.                
-------------------|
-------------------|
-------------------|
-------------------|
-------------------|
-------------------|


    Riff A                                                                      
                  |----3----|                              |----3----|          
    Q       E     S    S    S    E     E     Q       E     S    S    S    E     
--(51)----(51)--(51)-(51)-(51)-(51)--(51)--(51)----(51)--(51)-(51)-(51)-(51)--(5
--------------------------------------------------------------------------------
--------------------------------------------------------------------------------
--------------------------------------------------------------------------------
--------------------------------------------------------------------------------
--------------------------------------------------------------------------------


          |----3----|                       
    E     S    S    S    E     E     Q      
--(51)--(51)-(51)-(51)-(51)--(51)--(51)----|
-------------------------------------------|
-------------------------------------------|
-------------------------------------------|
-------------------------------------------|
-------------------------------------------|


                |----3----|                              |----3----|            
   Q      E     S    S    S    E     E     Q       E     S    S    S    E     E 
--36----(51)--(51)-(51)-(51)-(51)--(51)--(51)----(51)--(51)-(51)-(51)-(51)--(51)
--46----------------------------------------------------------------------------
--------------------------------------------------------------------------------
--------------------------------------------------------------------------------
--------------------------------------------------------------------------------
--------------------------------------------------------------------------------


                                              >   >   >   >   
       E     E     E     E    E   E   E   E   E   E   E   E   
--48g(48)--(48)--(48)--(48)--48--48--48--48--48--47--45--43--|
-------------------------------------------------------------|
-------------------------------------------------------------|
-------------------------------------------------------------|
-------------------------------------------------------------|
-------------------------------------------------------------|


                |----3----|                              |----3----|            
   Q      E     S    S    S    E     E     Q       E     S    S    S    E     E 
--36----(51)--(51)-(51)-(51)-(51)--(51)--(51)----(51)--(51)-(51)-(51)-(51)--(51)
--46----------------------------------------------------------------------------
--------------------------------------------------------------------------------
--------------------------------------------------------------------------------
--------------------------------------------------------------------------------
--------------------------------------------------------------------------------


       |--3--|                
   E   S  S  S  E   E   Q     
--48--48-48-48-47--45--43----|
-----------------------------|
-----------------------------|
-----------------------------|
-----------------------------|
-----------------------------|


                |----3----|                              |----3----|            
   Q      E     S    S    S    E     E     Q       E     S    S    S    E     E 
--36----(51)--(51)-(51)-(51)-(51)--(51)--(51)----(51)--(51)-(51)-(51)-(51)--(51)
--46----------------------------------------------------------------------------
--------------------------------------------------------------------------------
--------------------------------------------------------------------------------
--------------------------------------------------------------------------------
--------------------------------------------------------------------------------


                  |----3----|                                                   
    Q       E     S    S    S    E     E    S  S  S  S  S  S  S  S  S  S  S  S  
--(51)----(51)--(51)-(51)-(51)-(51)--(51)--48-48-48-47-47-47-45-45-45-45-43-41-|
-------------------------------------------------------------------------------|
-------------------------------------------------------------------------------|
-------------------------------------------------------------------------------|
-------------------------------------------------------------------------------|
-------------------------------------------------------------------------------|


                |----3----|                            |----3----|              
   Q      E     S    S    S    E     E    Q      E     S    S    S    E     E   
--36----(51)--(51)-(51)-(51)-(51)--(51)--36----(51)--(51)-(51)-(51)-(51)--(51)--
--46-------------------------------------46-------------------------------------
--------------------------------------------------------------------------------
--------------------------------------------------------------------------------
--------------------------------------------------------------------------------
--------------------------------------------------------------------------------


   Q     Q     Q     
--36----36----36----|
--46----46----46----|
--------------------|
--------------------|
--------------------|
--------------------|


                |----3----|                        |----3----|           
   Q      E     S    S    S   E   E   Q      E     S    S    S   E   E   
--36----(48)--(48)-(48)-(48)-47--45--36----(48)--(48)-(48)-(48)-47--45--|
--46---------------------------------46---------------------------------|
------------------------------------------------------------------------|
------------------------------------------------------------------------|
------------------------------------------------------------------------|
------------------------------------------------------------------------|


   Q      E     E     E     E    E   E   E    E     E     E    
--36----(48)--(48)--(48)--(48)--48--48--48---48----48----48---|
--46----------------------------------------(36)--(36)--(36)--|
--------------------------------------------------------------|
--------------------------------------------------------------|
--------------------------------------------------------------|
--------------------------------------------------------------|


                |----3----|                            |----3----|              
   Q      E     S    S    S    E     E    Q      E     S    S    S    E     E   
--36----(51)--(51)-(51)-(51)-(51)--(51)--36----(51)--(51)-(51)-(51)-(51)--(51)--
--46-------------------------------------46-------------------------------------
--------------------------------------------------------------------------------
--------------------------------------------------------------------------------
--------------------------------------------------------------------------------
--------------------------------------------------------------------------------


                                  |--3--|                    |--3--|          
   Q     Q     Q        Q     E   S  S  S  E   E   Q     E   S  S  S  E   E   
--36----36----36----|--36----51--48-48-48-48--47--36----51--48-48-48-48--47--|
--46----46----46----|--46-------------------------46-------------------------|
--------------------|--------------------------------------------------------|
--------------------|--------------------------------------------------------|
--------------------|--------------------------------------------------------|
--------------------|--------------------------------------------------------|


   Solo 2 Dave Murray                                              
                          |--3--|                                  
   Q                  E   S  S  S  E   E   E   E   E   E   E   E   
--36-----------------51--48-48-48-48--47--48--47--45--43--41--43--|
--46--------------------------------------36--------------35--36--|
------------------------------------------------------------------|
------------------------------------------------------------------|
------------------------------------------------------------------|
------------------------------------------------------------------|


   Q     Q     E   E   Q     Q     Q     
--36----44----44--36--38----44----44----|
--44----51----51--44--44----51----51----|
--49------------------------------------|
----------------------------------------|
----------------------------------------|
----------------------------------------|


   Q     Q     E   E   Q     Q     Q        Q     Q     Q     Q     Q     Q     
--36----44----44--36--38----44----44----|--36----44----44----38----44----44----|
--44----51--------44--44----51----59----|--44----51----51----44----51----51----|
----------------------------------------|--------------------------------------|
----------------------------------------|--------------------------------------|
----------------------------------------|--------------------------------------|
----------------------------------------|--------------------------------------|


   Q     E   E   E   E   E   E   E   E   E   E   
--36----44--38--38--38--48--47--48--47--45--43--|
--44--------------------------------------------|
------------------------------------------------|
------------------------------------------------|
------------------------------------------------|
------------------------------------------------|


   Q     Q     Q     Q     Q     Q        Q     Q     Q     Q     Q     Q     
--36----44----44----38----44----44----|--36----44----44----38----44----44----|
--44----51----51----44----51----59----|--44----51----51----44----51----59----|
--49----------------------------------|--------------------------------------|
--------------------------------------|--------------------------------------|
--------------------------------------|--------------------------------------|
--------------------------------------|--------------------------------------|


   Q     Q     Q     Q     Q     Q     
--36----44----44----38----44----44----|
--44----51----51----44----51----51----|
--------------------------------------|
--------------------------------------|
--------------------------------------|
--------------------------------------|


   E   E   E   E   E   E   E   E   E   E   E   E   
--38--38--36--38--38--48--47--45--43--41--43--41--|
--44----------44----------------------------------|
--------------------------------------------------|
--------------------------------------------------|
--------------------------------------------------|
--------------------------------------------------|


   Q     Q     Q     Q     Q     Q        Q     Q     Q     Q     Q     Q     
--36----44----44----38----44----44----|--36----44----44----38----44----44----|
--44----51----51----44----51----51----|--44----51----51----44----51----51----|
--49----------------------------------|--------------------------------------|
--------------------------------------|--------------------------------------|
--------------------------------------|--------------------------------------|
--------------------------------------|--------------------------------------|


   Q     Q     Q     Q     Q     Q     
--36----44----44----38----44----44----|
--44----51----51----44----51----51----|
--------------------------------------|
--------------------------------------|
--------------------------------------|
--------------------------------------|


   S  S  S  S  S  S  S  S  S  S  S  S  S  S  S  S  E   E   E   E   
--38-38-38-38-38-48-47-45-47-45-43-41-43-45-41-45-47--45--43--41--|
--44-------44-----------------------------------------------------|
------------------------------------------------------------------|
------------------------------------------------------------------|
------------------------------------------------------------------|
------------------------------------------------------------------|


   Q     Q     Q     Q     Q     Q        Q     Q     Q     Q     Q     Q     
--36----44----44----38----44----44----|--36----44----44----38----44----44----|
--44----51----51----44----51----51----|--44----51----51----44----51----51----|
--49----------------------------------|--------------------------------------|
--------------------------------------|--------------------------------------|
--------------------------------------|--------------------------------------|
--------------------------------------|--------------------------------------|


   Q     Q     Q     Q     Q     Q     
--36----44----44----38----44----44----|
--44----51----51----44----51----51----|
--------------------------------------|
--------------------------------------|
--------------------------------------|
--------------------------------------|


   Q     E   E   E   E   Q     E   E   E   E   
--36----44--38--38--38--36----48--47--45--43--|
--44--------------------44--------------------|
------------------------46--------------------|
----------------------------------------------|
----------------------------------------------|
----------------------------------------------|


   Verso Riff                                 
   Q          Q     E   E   Q     Q     Q     
--36---------44----44--36--38----44----44----|
--44-------------------44--44----------------|
--49-----------------------------------------|
---------------------------------------------|
---------------------------------------------|
---------------------------------------------|


   Q     Q     E   E   Q     Q     Q        Q     Q     Q     Q     Q     Q     
--36----44----44--36--38----44----44----|--36----44----44----38----44----44----|
--44--------------44--44----------------|--44----------------44----------------|
----------------------------------------|--------------------------------------|
----------------------------------------|--------------------------------------|
----------------------------------------|--------------------------------------|
----------------------------------------|--------------------------------------|


   Q     Q     Q     Q     E   E   E   E   
--36----44----44----38----47--45--43--41--|
--44----------------44--------------------|
--------------------55--------------------|
------------------------------------------|
------------------------------------------|
------------------------------------------|


   Q     Q     E   E   Q     Q     Q     
--36----44----44--36--38----44----44----|
--44--------------44--44----------------|
--49------------------------------------|
----------------------------------------|
----------------------------------------|
----------------------------------------|


   Q     Q     E   E   Q     Q     Q        Q     Q     Q     Q     Q     Q     
--36----44----44--36--38----44----44----|--36----44----44----38----44----44----|
--44--------------44--44----------------|--44----------------44----------------|
----------------------------------------|--------------------------------------|
----------------------------------------|--------------------------------------|
----------------------------------------|--------------------------------------|
----------------------------------------|--------------------------------------|


   Q     Q     Q     Q     Q     Q        Q     Q     E   E   Q     Q     Q     
--36----44----44----38----44----44----|--36----44----44--36--38----44----44----|
--44----------------44----------------|--44--------------44--44----------------|
--------------------------------------|--49------------------------------------|
--------------------------------------|----------------------------------------|
--------------------------------------|----------------------------------------|
--------------------------------------|----------------------------------------|


   Q     Q     E   E   Q     Q     Q        Q     Q     Q     Q     Q     Q     
--36----44----44--36--38----44----44----|--36----44----44----38----44----44----|
--44--------------44--44----------------|--44----------------44----------------|
----------------------------------------|--------------------------------------|
----------------------------------------|--------------------------------------|
----------------------------------------|--------------------------------------|
----------------------------------------|--------------------------------------|


   Q     Q     Q     E   E   E   E   E   E   
--36----44----44----38--38--48--47--45--43--|
--44----------------44----------------------|
--------------------------------------------|
--------------------------------------------|
--------------------------------------------|
--------------------------------------------|


   Q     Q     E   E   Q     Q     Q     
--36----44----44--36--38----44----44----|
--44--------------44--44----------------|
--49------------------------------------|
----------------------------------------|
----------------------------------------|
----------------------------------------|


   Q     Q     E   E   Q     Q     Q        Q     Q     Q     Q     Q     Q     
--36----44----44--36--38----44----44----|--36----44----44----38----44----44----|
--44--------------44--44----------------|--44----------------44----------------|
----------------------------------------|--------------------------------------|
----------------------------------------|--------------------------------------|
----------------------------------------|--------------------------------------|
----------------------------------------|--------------------------------------|


                                            Break                             
   Q     Q     Q     Q     Q     E   E      W                 E   E   E   E   
--36----44----44----38----36----47--45--|--36----------------38--45--43--41--|
--44----------------44----44------------|--44--------------------------------|
--------------------55----55------------|--49--------------------------------|
----------------------------------------|------------------------------------|
----------------------------------------|------------------------------------|
----------------------------------------|------------------------------------|


   W.                
--36----------------|
--44----------------|
--46----------------|
--57----------------|
--------------------|
--------------------|


    Riff A                                                                      
                  |----3----|                              |----3----|          
    Q       E     S    S    S    E     E     Q       E     S    S    S    E     
--(51)----(51)--(51)-(51)-(51)-(51)--(51)--(51)----(51)--(51)-(51)-(51)-(51)--(5
--------------------------------------------------------------------------------
--------------------------------------------------------------------------------
--------------------------------------------------------------------------------
--------------------------------------------------------------------------------
--------------------------------------------------------------------------------


          |----3----|                       
    E     S    S    S    E     E     Q      
--(51)--(51)-(51)-(51)-(51)--(51)--(51)----|
-------------------------------------------|
-------------------------------------------|
-------------------------------------------|
-------------------------------------------|
-------------------------------------------|


                |----3----|                              |----3----|            
   Q      E     S    S    S    E     E     Q       E     S    S    S    E     E 
--36----(51)--(51)-(51)-(51)-(51)--(51)--(51)----(51)--(51)-(51)-(51)-(51)--(51)
--46----------------------------------------------------------------------------
--------------------------------------------------------------------------------
--------------------------------------------------------------------------------
--------------------------------------------------------------------------------
--------------------------------------------------------------------------------


                                              >   >   >   >   
       E     E     E     E    E   E   E   E   E   E   E   E   
--48g(48)--(48)--(48)--(48)--48--48--48--48--48--47--45--43--|
-------------------------------------------------------------|
-------------------------------------------------------------|
-------------------------------------------------------------|
-------------------------------------------------------------|
-------------------------------------------------------------|


                |----3----|                              |----3----|            
   Q      E     S    S    S    E     E     Q       E     S    S    S    E     E 
--36----(51)--(51)-(51)-(51)-(51)--(51)--(51)----(51)--(51)-(51)-(51)-(51)--(51)
--46----------------------------------------------------------------------------
--------------------------------------------------------------------------------
--------------------------------------------------------------------------------
--------------------------------------------------------------------------------
--------------------------------------------------------------------------------


       |--3--|                
   E   S  S  S  E   E   Q     
--48--48-48-48-47--45--43----|
-----------------------------|
-----------------------------|
-----------------------------|
-----------------------------|
-----------------------------|


                |----3----|                              |----3----|            
   Q      E     S    S    S    E     E     Q       E     S    S    S    E     E 
--36----(51)--(51)-(51)-(51)-(51)--(51)--(51)----(51)--(51)-(51)-(51)-(51)--(51)
--46----------------------------------------------------------------------------
--------------------------------------------------------------------------------
--------------------------------------------------------------------------------
--------------------------------------------------------------------------------
--------------------------------------------------------------------------------


                  |----3----|                                                   
    Q       E     S    S    S    E     E    S  S  S  S  S  S  S  S  S  S  S  S  
--(51)----(51)--(51)-(51)-(51)-(51)--(51)--48-48-48-47-47-47-45-45-45-45-43-41-|
-------------------------------------------------------------------------------|
-------------------------------------------------------------------------------|
-------------------------------------------------------------------------------|
-------------------------------------------------------------------------------|
-------------------------------------------------------------------------------|


                |----3----|                            |----3----|              
   Q      E     S    S    S    E     E    Q      E     S    S    S    E     E   
--36----(51)--(51)-(51)-(51)-(51)--(51)--36----(51)--(51)-(51)-(51)-(51)--(51)--
--46-------------------------------------46-------------------------------------
--------------------------------------------------------------------------------
--------------------------------------------------------------------------------
--------------------------------------------------------------------------------
--------------------------------------------------------------------------------


                                  |--3--|                                
   Q     Q     Q        Q     E   S  S  S  E   E   Q     E   S  S  Q     
--36----36----36----|--36----48--48-48-48-47--45--36----48--47-47-45----|
--46----46----46----|--46-------------------------46--------------------|
--------------------|---------------------------------------------------|
--------------------|---------------------------------------------------|
--------------------|---------------------------------------------------|
--------------------|---------------------------------------------------|


                |----3----|                                       
   Q      E     S    S    S    E     E    E   E   E   E   E   E   
--36----(51)--(51)-(51)-(51)-(51)--(51)--48--48--48--47--45--43--|
--46-------------------------------------------------------------|
-----------------------------------------------------------------|
-----------------------------------------------------------------|
-----------------------------------------------------------------|
-----------------------------------------------------------------|


   Outro                                                                  
   E     S  S  E   E   Q     E   S  S  E   E   Q        Q     Q     Q     
--36----48-48-47--45--43----36--47-47-45--43--41----|--36----36----36----|
--46------------------------46----------------------|--46----46----46----|
----------------------------------------------------|--------------------|
----------------------------------------------------|--------------------|
----------------------------------------------------|--------------------|
----------------------------------------------------|--------------------|


              |----3----|    |----3----|    |----3----|    |----3----|   |--3--|
   H          S    S    S    S    S    S    S    S    S    S    S    S   S  S  S
--36--------(55)-(55)-(55)-(55)-(55)-(55)-(55)-(55)-(55)-(55)-(55)-(55)-55-55-55
--46----------------------------------------------------------------------------
--49----------------------------------------------------------------------------
--------------------------------------------------------------------------------
--------------------------------------------------------------------------------
--------------------------------------------------------------------------------


   |--3--|  |--3--|  |--3--|  |--3--|   |----3----|    |----3----|    |----3----
   S  S  S  S  S  S  S  S  S  S  S  S   S    S    S    S    S    S    S    S    
--55-55-55-55-55-55-55-55-55-55-55-55-(55)-(55)-(55)-(55)-(55)-(55)-(55)-(55)-(5
--------------------------------------------------------------------------------
--------------------------------------------------------------------------------
--------------------------------------------------------------------------------
--------------------------------------------------------------------------------
--------------------------------------------------------------------------------


   H          T    T    T    T    T   T  T  T  T  T  T  T   T    T    T   T  H  
--36--------(51)-(51)-(51)-(51)-(51)-51-51-51-51-51-51-51-(51)-(51)-(51)-51-59--
--46----------------------------------------------------------------------------
--49----------------------------------------------------------------------------
--------------------------------------------------------------------------------
--------------------------------------------------------------------------------
--------------------------------------------------------------------------------


   W.                 
---L----------------||
--------------------||
--------------------||
--------------------||
--------------------||
--------------------||
            
Submit corrections

↑ Back to top | Tablatures and chords for acoustic guitar and electric guitar, ukulele, drums are parodies/interpretations of the original songs. You may use it for private study, scholarship, research or language learning purposes only