» » »

Iron Maiden - Stranger In A Strange Land Tabs

Artists:  A B C D E F G H I J K L M N O P Q R S T U V W X Y Z # 

Stranger In A Strange Land Tabs

(ver. 1) Click to play this song!
Iron Maiden
 Rating:
4.3/5 (9 votes)

 Stranger In A Strange Land lessons Tabs too difficult? Try these video lessons and learn fast
 
                [Solo I]
e|--------------------------------------|--------------------------------------|
B|--12~--13-12h13p12--------------------|------12--13--12----------------------|
G|-------------------14-12-11-12-14-----|-------------------12-----------------|
D|----------------------------------12--|--14----------------------------------|
A|--------------------------------------|--------------------------------------|
E|--------------------------------------|--------------------------------------|

e|--------------------------------------|--------------------------------------|
B|--13--12h13p12------------------------|--------------------------------------|
G|---------------14--12-14b16r14p12-14--|--12p9--------------------------------|
D|--------------------------------------|--------12p9\7------------------------|
A|--------------------------------------|--------------------------------------|
E|--------------------------------------|--------------------------------------|

e|--------------------------------------|-----14-15-17--15p14-15-14------------|
B|--17b19r17----------------------------|--17-----------------------15---------|
G|--------------16~---------------------|------------------------------14~-----|
D|--------------------------------------|--------------------------------------|
A|--------------------------------------|--------------------------------------|
E|--------------------------------------|--------------------------------------|

e|--20b22---20b22---20--19--------------|--17--19--20---19p15-17~--------------|
B|--------------------------20~---------|--------------------------------------|
G|--------------------------------------|--------------------------------------|
D|--------------------------------------|--------------------------------------|
A|--------------------------------------|--------------------------------------|
E|--------------------------------------|--------------------------------------|

[Solo II]
e|--15b17--15b17------------------------|--15p12----12-------12------------(12)|
B|--------------------------------------|--------12----15b17----15p12----12----|
G|--------------------------------------|-----------------------------14-------|
D|--------------------------------------|--------------------------------------|
A|--------------------------------------|--------------------------------------|
E|--------------------------------------|--------------------------------------|

e|--------------------------------------|--------------------------------------|
B|--15p12-------------------------------|--------------------------------------|
G|--------14b16r14p12--14--12~----------|--------------------------------------|
D|--------------------------------------|--14-12-14--12----12------------------|
A|--------------------------------------|---------------14-----14-12-14--------|
E|--------------------------------------|--------------------------------------|

e|--------------------------------------|--------------------------------------|
B|--------------------------------------|--------------------------------------|
G|--------------------------------------|--------------------------------------|
D|--------------------------------------|--------------------------14-12-14-12~|
A|--12-10-12--10----10~-----------------|--------------12-10-12-10-------------|
E|---------------12------------(10)-----|--12-10-12-10-------------------------|

           PH        
e|--------------------------------------|-/12-------------12-------------------|
B|----------------------------------/12~|-----15p12----------15b17-------------|
G|--14b16--14b16r14-12-14~--12----------|-----------14b16----------------------|
D|-----------------------------12\------|--------------------------------------|
A|--------------------------------------|--------------------------------------|
E|--------------------------------------|--------------------------------------|

Hold the last bend while vibrating.
e|--12-------------12-------12-------------12-------12-------------12----------|
B|-----15p12----------15b17----15p12----------15b17----15p12----------15b17~---|
G|-----------14b16-------------------14b16-------------------14b16-------------|
D|-----------------------------------------------------------------------------|
A|-----------------------------------------------------------------------------|
E|-----------------------------------------------------------------------------|

e|--15-15b17r15-12-17b19---17b19--------|--17b19r17-15-17~--15-----------------|
B|--------------------------------------|----------------------17-15\----------|
G|--------------------------------------|--------------------------------------|
D|--------------------------------------|--------------------------------------|
A|--------------------------------------|--------------------------------------|
E|--------------------------------------|--------------------------------------|

e|--20b22---20b22--20--19------17---19--|-20b22--20--19------17--19--17~-------|
B|-------------------------20-----------|----------------20--------------------|
G|--------------------------------------|--------------------------------------|
D|--------------------------------------|--------------------------------------|
A|--------------------------------------|--------------------------------------|
E|--------------------------------------|--------------------------------------|

e|--------17-19p17----17-------17-19p17----17----------------------------------|
B|--20b22----------20----20b22----------20----20b22-17h20p17----17-20b22r20p17-|
G|-----------------------------------------------------------19----------------|
D|-----------------------------------------------------------------------------|
A|-----------------------------------------------------------------------------|
E|-----------------------------------------------------------------------------|

e|-----------------------------------------------------------------------------|
B|-----------------------------------------------------------------------------|
G|-----------------------------------------------------------------------------|
D|-----------------------------------------------------------------------------|
A|--19~------------------------------------------------------------------------|
E|-----------------------------------------------------------------------------|            
Submit corrections


        Stranger In A Strange Land lessons Hard to play? Try these video lessons and learn fast Stranger In A Strange Land lessons
        
↑ Back to top | Tablatures and chords for acoustic guitar and electric guitar, ukulele, drums are parodies/interpretations of the original songs. You may use it for private study, scholarship, research or language learning purposes only