» » »

Iron Maiden - If Eternity Should Fail Tabs

Artists:  A B C D E F G H I J K L M N O P Q R S T U V W X Y Z # 

If Eternity Should Fail Tabs

(ver. 1) Click to play this song!
Iron Maiden
 Rating:
4.3/5 (9 votes)

 If Eternity Should Fail  lessons Tabs too difficult? Try these video lessons and learn fast
 
                
[Intro] (x8)

e|---------------------------------------------------------------------------|
B|---------------------------------------------------------------------------|
G|----7-----7-----7-----7----------------------------------------------------|
D|----7-----7-----7-----7----------------------------------------------------|
A|----5-5-5-5-5-5-5-5-5-5----------------------------------------------------|
E|---------------------------------------------------------------------------|
riff over intro (x4)
e|---------------------------------------------------------------------------|
B|---------------------------------------------------------------------------|
G|----b12(14)-10-b12(14)-12-10-9---b12(14)-10-b12(14)-12-b12(14)-12----------|
D|---------------------------------------------------------------------------|
A|---------------------------------------------------------------------------|
E|---------------------------------------------------------------------------|


[Verse]

(first time round it goes back to d second time it goes to the bridge)
e|---------------------------------------------------------------------------|
B|---------------------------------------------------------------------------|
G|----7----5----7----10--5--7----5----7----10--5-----------------------------|
D|----7----5----7----10--5--7----5----7----10--5-----------------------------|
A|----5----3----5----8---3--5----3----5----8---3-----------------------------|
E|---------------------------------------------------------------------------|


[Bridge]

e|---------------------------------------------------------------------------|
B|---------------------------------------------------------------------------|
G|----3--------2--------3--------2-------------------------------------------|
D|----3--------2--------3--------2-------------------------------------------|
A|----1--------0--------1--------0-------------------------------------------|
E|---------------------------------------------------------------------------|


[Chorus] (x5)

e|---------------------------------------------------------------------------|
B|---------------------------------------------------------------------------|
G|----7----5----3---------7--------------------------------------------------|
D|----7----5----3--3--5---7--------------------------------------------------|
A|----5----3----1--3--5---5--------------------------------------------------|
E|-----------------1--3-3----------------------------------------------------|

second section (after bass riff)
e|---------------------------------------------------------------------------|
B|---------------------------------------------------------------------------|
G|---------------------------------------------------------------------------|
D|--------7-5-5-5-5-5-4-5----------------------------------------------------|
A|----7-7-----------------7--------------------------------------------------|
E|---------------------------------------------------------------------------|

e|---------------------------------------------------------------------------|
B|----6-6-8s10-10-11s13-13-15s17-17-18-17-b17(18)r17-------------------------|
G|---------------------------------------------------------------------------|
D|---------------------------------------------------------------------------|
A|---------------------------------------------------------------------------|
E|---------------------------------------------------------------------------|

e|---------------------------------------------------------------------------|
B|----17-15-17---17-15-17-18-20-18-17-15-17----------------------------------|
G|---------------------------------------------------------------------------|
D|---------------------------------------------------------------------------|
A|---------------------------------------------------------------------------|
E|---------------------------------------------------------------------------|

e|---------------------------------------------------------------------------|
B|----17-15-17---15-13-15---13-12-13---12-10-12---8--------------------------|
G|---------------------------------------------------------------------------|
D|---------------------------------------------------------------------------|
A|---------------------------------------------------------------------------|
E|---------------------------------------------------------------------------|            
Submit corrections


        If Eternity Should Fail  lessons Hard to play? Try these video lessons and learn fast If Eternity Should Fail  lessons
        
↑ Back to top | Tablatures and chords for acoustic guitar and electric guitar, ukulele, drums are parodies/interpretations of the original songs. You may use it for private study, scholarship, research or language learning purposes only