» » »

Iron Maiden - Die With Your Boots On Bass

Artists:  A B C D E F G H I J K L M N O P Q R S T U V W X Y Z # 

Die With Your Boots On Bass

(ver. 1) Click to play this song!
Iron Maiden
 Rating:
4.3/5 (22 votes)

 Die With Your Boots On lessons Tabs too difficult? Try these video lessons and learn fast
 
                 [Intro]
G|------------------------------------------------------------------|
D|------------------------------------------------------------------|
A|-5---7-7-R-----------------------2---3-3-R------------------------|
E|------------------------------------------------------------------|

G|------------------------------------------------------------------|
D|------------------------------------------------------------------|
A|-3---5-5-R-----------------------5---7-7-R------------------------|
E|------------------------------------------------------------------|

G|------------------------------------------------------------------|
D|------------------------------------------------------------------|
A|-5---7-7-7-7-7-7-7-7-7-7-7-7-7-0-2---3-3-3-3-3-3-3-3-3-3-3-3-3-0--|
E|------------------------------------------------------------------|

G|------------------------------------------------------------------|
D|---------------------------------------------------5--------------|
A|-3---5-5-5-5-5-5-5-5-5-5-5-5-5-0-5---7-7-7-7-7-7-7---7-5----------|
E|---------------------------------------------------------7-5-3-2--|


 Verse A
G|------------------------------------------------------------------|
D|-----------------5---5-5-5-5-3-----------------------5-5-5-7-5----|
A|-----7-7-7-7-5-7---------------5-3---3-3-3-3-2-0---------------5--|
E|-0-----------------------------------------------3----------------|

G|-----------------------------------------------------.------------|
D|-----------------5---5-5-5-5-3-----------------------5---5-7-5----|
A|-7---7-7-7-7-5-7---------------5-3---3-3-3-3-2-0---------------5--|
E|-------------------------------------------------3----------------|

G|------------------------------------------------------------------|
D|-----------------5---5-5-5-5-3-----------------------5-5-5-7-5----|
A|-7---7-7-7-7-5-7---------------5-3---3-3-3-3-2-0---------------5--|
E|-------------------------------------------------3----------------|

G|------------------------------------------------------------------|
D|-----------------5---5-5-5-5-3------------------------------------|
A|-7---7-7-7-7-5-7---------------5-3---3-3-3-3-2-0-------------.----|
E|-------------------------------------------------3---3-3-3-3-1----|


 Verse B
G||--------------------------------------------------------------------|
D||-o------------------------------------------------------------------|
A||-o-1---1-1-1-1-1-1-----------------3---3-3-3-3-2-0-------------.----|
E||-------------------1---1-1-1-1-1-1-----------------3---3-3-3-3-1----|

G|--------------------------------------------------------------------||
D|------------------------------------------------------------------o-||
A|-1---1-1-1-1-1-1---------------------------------------------.----o-||
E|-----------------1---1-1-1-1-1-0-1---3-3-3-3-3-0-1---3-3-3-3-1------||


 [Pre-Chorus]
G|------------------------------------------------------------------|
D|------------------------------------------------------------------|
A|-1---1-1-1-1-1-1-1-1-1-1-1-1-1-0-1---1-1-1-1-1-1-1-1-1-1-1-1-1-0--|
E|------------------------------------------------------------------|

G|-----5-5-5-5-5-5-5-5-5-5-5-5-5-------7-7-7-7-7-7—7-9-7----------------|
D|-------------------------------------------------------9-7--------------|
A|-3-------------------------------5-------------------------109-7-5------|
E|------------------------------------------------------------------------|


 [Chorus 1]
G|------------------------------------------------------------------|
D|-------------------------------------------------------------5-4--|
A|-7-7-7-7-7-7-7-7---7-7-7-7-7-7-7-5h7-7-7-7-7-7-7-7-7-5------------|
E|-------------------------------------------------------7-6-5------|

G|------------------------------------------------------------------|
D|---------------------------------------------------5--------------|
A|-----7-7-7-7-7-7-7-7-7-7-7-7-7-7-5h7-7-7-7-7-7-7-7---7-5----------|
E|-0-------------------------------------------------------7-5-3-2--|

G|---------------------------------------------------9-7------------|
D|-------------------------------------------------------9-7-5------|
A|-----7-7-7-7-7-7-7-7-7-7-7-7-7-7-5h7-7-7-7-7-7-7-7-----------7-5--|
E|-0----------------------------------------------------------------|

G|------------------------------------------------------------------|
D|------------------------------------------------------------------|
A|-----7-7-7-7-7-7-7-7-7-7-7-7-7-7-5h7-7-7-7-7-7-7-7-7-5------------|
E|-0-----------------------------------------------------7-5-3-5-3--|


Verse A & B


[Pre-Chorus]


 [Chorus 2]
G|------------------------------------------------------------------|
D|-------------------------------------------------------------5-4--|
A|-7-7-7-7-7-7-7-7-7-7-7-7-7-7-7-7-5h7-7-7-7-7-7-7-7-7-5------------|
E|-------------------------------------------------------7-6-5------|

G|------------------------------------------------------------------|
D|---------------------------------------------------5--------------|
A|-----7-7-7-7-7-7-7-7-7-7-7-7-7-7-5h7-7-7-7-7-7-7-7---7-5----------|
E|-0-------------------------------------------------------7-5-3-2--|

G|---------------------------------------------------9-7------------|
D|-------------------------------------------------------9-7-9-7-5--|
A|-----7-7-7-7-7-7-7-7-7-7-7-7-7-7-5h7-7-7-7-7-7-7-7----------------|
E|-0----------------------------------------------------------------|

G|------------------------------------------------------------------|
D|------------------------------------------------------------------|
A|-----7-7-7-7-7-7-7-7-7-7-7-7-7-7-5h7-7-7-7-7-7-7-7-7-5------------|
E|-0-----------------------------------------------------7-5-3-5-3--|


 Bridge (let the notes ring)
G|-------9---9-----------11--11----------12--12----------14--14-----|
D|-7---7---7---7-R-9---9---9---9-R-10--10--10--10R-12--12--12--12-R-|
A|------------------------------------------------------------------|
E|------------------------------------------------------------------|


 [Interlude]
G||--------------------------------------------------------------------|
D||-o------------------------------------------------------------------|
A||-o---------------------------3-2-0---------------------------3-2-0--|
E||---5---5-5-5-5-5-5-5-5-5-5-5-------1---1-1-1-1-1-1-1-1-1-1-1--------|

G|--------------------------------------------------------------------||
D|------------------------------------------------------------------o-||
A|-----------------------------3-2-------------------3---3---3---3--o-||
E|-3---3-3-3-3-3-3-3-3-3-3-3-3-----5---5-5-5-5-5-5-5---5---5---5------||


 Verse C
G|------------------------------------------------------------------|
D|------------------------------------------------------------------|
A|---------------------------3-2-----------------------------3-2----|
E|-5---5-5-5-5-5-5-5-5-5-5-5-----3-1---1-1-1-1-1-1-1-1-1-1-1-----3--|

G|------------------------------------------------------------------|
D|------------------------------------------------------------------|
A|-----------------------------3-2-------------------3---3---3---3--|
E|-3---3-3-3-3-3-3-3-3-3-3-3-3-----5---5-5-5-5-5-5-5---5---5---5----|

G|------------------------------------------------------------------|
D|------------------------------------------------------------------|
A|---------------------------3-2-0---------------------------3-2-0--|
E|-5---5-5-5-5-5-5-5-5-5-5-5-------1---1-1-1-1-1-1-1-1-1-1-1--------|

G|------------------------------------------------------------------|
D|------------------------------------------------------------------|
A|-----------------------------3-2---------------------------3---3--|
E|-3---3-3-3-3-3-3-3-3-3-3-3-3-----5---5-5-5-5-5-5-5-5-5-5-5---5----|


 Guitar Solo
G||--------------------------------------------------------------------|
D||-o------------------------------------------------------------------|
A||-o---------------------------3-2-0---------------------------3-2-0--|
E||---5---5-5-5-5-5-5-5-5-5-5-5-------1---1-1-1-1-1-1-1-1-1-1-1--------|

G|---------------------------------------9-------9-------12-----------||
D|-----------------------------------7-----7-9-----9-10----1012-\---o-||
A|-5---5-5-5-5-5-5-5-5-5-5-5-5-5-5----------------------------------o-||
E|--------------------------------------------------------------------||


Verse B


[Pre-Chorus]

 Chorus/Outro
G|------------------------------------------------------------------|
D|------------------------------------------------------------------|
A|-7-7-7-7-7-7-7-7-7-7-7-7-7-7-7-7-5h7-7-7-7-7-7-7-7-7-5------------|
E|-------------------------------------------------------7-5-3-5-3--|

G|------------------------------------------------------------------|
D|---------------------------------------------------5--------------|
A|-----7-7-7-7-7-7-7-7-7-7-7-7-7-7-5h7-7-7-7-7-7-7-7---7-5----------|
E|-0-------------------------------------------------------7-5-3-2--|

G|---------------------------------------------------9-7---7--------|
D|-------------------------------------------------------9---9-7-5--|
A|-----7-7-7-7-7-7-7-7-7-7-7-7-7-7-5h7-7-7-7-7-7-7-7----------------|
E|-0----------------------------------------------------------------|

G|--------------------------------------------------------------------|
D|--------------------------------------------------------------------|
A|-----7-7-7-7-7-7-7-7-7-7-7-7-7-7-5h7-7-7-7-7-7-7-7---5--------------|
E|-0-----------------------------------------------------7-5-3-5-3-0--|            
Submit corrections


        Die With Your Boots On lessons Hard to play? Try these video lessons and learn fast Die With Your Boots On lessons
        
↑ Back to top | Tablatures and chords for acoustic guitar and electric guitar, ukulele, drums are parodies/interpretations of the original songs. You may use it for private study, scholarship, research or language learning purposes only