» » »

Iron Chic - Timecop Bass

Artists:  A B C D E F G H I J K L M N O P Q R S T U V W X Y Z # 

Timecop Bass

(ver. 1) Click to play this song!
Iron Chic
 Rating:
4.3/5 (12 votes)

 Timecop lessons Tabs too difficult? Try these video lessons and learn fast
 
                Intro]
G------------------------------------------|
D------------------------------------------|
A------------------------------------------|
E-----00000000000 0000000000000------------|

Remember when time is all we had
G---------------------------------------------|
D---------------------------------------------|
A--------------------------4444444444444 0000-| (x4)
E---00000000 444444 4242----------------------|

But it's not like that anymore
G------------------------------------------|
D------------------------------------------|
A------------------------------------------|
E------00000000000000000-------------------|

Re-group, re-calculate
G-----------------------------------------|
D-----------------------------------------|
A------------44444444---22222222----------|  (x2)
E--555 000--------------------------------|

Maybe move onto better things
G-----------------------------------------|
D-----------------------------------------|
A-----------------------------------------|
E--------5~-------------------------------|

Remember the pain of growing up
G---------------------------------------------|
D---------------------------------------------|
A--------------------------4444444444444 0000-| (x2)
E---00000000 444444 4242----------------------|


This is what we waited for
G----------------------------------------|
D----------------------------------------|
A----------------------------------------|
E--000000000-----------------------------|

Breakdown
G----------------------------------------|
D--------1/2-----------------------------|
A----------------------------------------| (x8)
E--000000--------------------------------|

Re-group, re-calculate
G-----------------------------------------|
D-----------------------------------------|
A------------44444444---22222222----------|  (x2)
E--555 000--------------------------------|

These days not much has changed
G-------------------------------------------|
D-------------------------------------------|
A----------------------444444444---22222222-| (x2)
E---55555555 00000000-----------------------|

(Outro)
G----------------------------------------|
D--------1/2-----------------------------|
A----------------------------------------| (x8)
E--000000-----------------0~-------------|            
Submit corrections


        Timecop lessons Hard to play? Try these video lessons and learn fast Timecop lessons
        
↑ Back to top | Tablatures and chords for acoustic guitar and electric guitar, ukulele, drums are parodies/interpretations of the original songs. You may use it for private study, scholarship, research or language learning purposes only