» » »

Iron Chic - Letsgetdangerous Bass

Artists:  A B C D E F G H I J K L M N O P Q R S T U V W X Y Z # 

Letsgetdangerous Bass

(ver. 1) Click to play this song!
Iron Chic
 Rating:
4.3/5 (23 votes)

 Letsgetdangerous lessons Tabs too difficult? Try these video lessons and learn fast
 
                G|------------------------------------------------------------------------|
D|------------------------------------------------------------------------|
A|------------------------------------------------------------------------|
E|/12--5-5-5-5-5-5-5-5--0-0-0-0-0-0-0-0-0--2-2-2-2-2-0-0-2-2-2-2-2-0-0----|

G|-------------------------------------------------------------------------------------------|
D|----------------------------------------------------5--------------------5-----------------|
A|--------------------------------------5-5-5-5-5--7-----7---5-5-5-5-5--7-----7--------------|
E|-5-5-5-5-5-5-5-5--0-0-0-0-0-0-0-0-0--------------------------------------------------------| 

G|--------------------------------------------------------------------|
D|--------------------------------------------------------------------|
A|--------------------------------------------------------------------|
E|-5-5-5-5-5-5-5-5--0-0-0-0-0-0-0-0-0--2-2-2-2-2-0-0-2-2-2-2-2-0-0----|

G|-------------------------------------------------------------------------------------------|
D|----------------------------------------------------5--------------------5-----------------|
A|--------------------------------------5-5-5-5-5--7-----7---5-5-5-5-5--7-----7--------------|
E|-5-5-5-5-5-5-5-5--0-0-0-0-0-0-0-0-0--------------------------------------------------------| 

G|--------------------------------------------------------------------|
D|--------------------------------------------------------------------|
A|-----------------5-5-5-5-5-5-5-5------------------------------------| x3
E|--2-2-2-2-2-2-2-------------------5-5-5-5-5-5-5-5-5-5-5-5-5---------|

G|--------------------------------------------------------------------|
D|--------------------------------------------------------------------|
A|--------------------------------------------------------------------|
E|-5-5-5-5-5-5-5-5--0-0-0-0-0-0-0-0-0--2-2-2-2-2-0-0-2-2-2-2-2-0-0----|

G|-------------------------------------------------------------------------------------------|
D|----------------------------------------------------5--------------------5-----------------|
A|--------------------------------------5-5-5-5-5--7-----7---5-5-5-5-5--7-----7--------------|
E|-5-5-5-5-5-5-5-5--0-0-0-0-0-0-0-0-0--------------------------------------------------------|

G|--------------------------------------------------------------------|
D|--------------------------------------------------------------------|
A|--------------------------------------------------------------------|
E|-5-5-5-5-5-5-5-5--0-0-0-0-0-0-0-0-0--2-2-2-2-2-0-0-2-2-2-2-2-0-0----|

G|-------------------------------------------------------------------------------------------|
D|----------------------------------------------------5--------------------5-----------------|
A|--------------------------------------5-5-5-5-5--7-----7---5-5-5-5-5--7-----7--------------|
E|-5-5-5-5-5-5-5-5--0-0-0-0-0-0-0-0-0--------------------------------------------------------|

G|--------------------------------------------------------------------|
D|--------------------------------------------------------------------|
A|-----------------5-5-5-5-5-5-5-5------------------------------------| x3
E|--2-2-2-2-2-2-2-------------------5-5-5-5-5-5-5-5-5-5-5-5-5---------|


G|-----------------------------------------------------------------------------------|
D|------------------------------------7-7-7-----------------------------------7-7-7--|
A|-----------------------------------------------------------------------------------|
E|--5-5-5-5-5-5-5-5-5-5-5-5-5-5-5-5----------5-5-5-5-5-5-5-5-5-5-5-5-5-5-5-5---------| 

G|------------------------------------------------|
D|------------------------------------------------|
A|--12--12--12--12--12--12---7--7--7--7--7--7-----| x2  
E|--10--10--10--10--10--10---5--5--5--5--5--5-----|

G|-----------------------------------|
D|-----------------------------------|
A|-------5-5-5---7--7--7--7--7-------| x2
E|--2-2----------5--5--5--5--5-------|

G|-----------------------------------|
D|-------------------------7--9--7---| x3
A|-----------------------------------|
E|--5-5-5-5-5-5-5-5-5-5-5------------|

G|-----------------------------------|
D|-----------------------------------|
A|-----------------------------------|
E|---5-5-5-5-5-5-5-5-5-5-5-----------| 

G|--------------------------------------------------------------------|
D|--------------------------------------------------------------------|
A|-----------------5-5-5-5-5-5-5-5------------------------------------| x3
E|--2-2-2-2-2-2-2-------------------5-5-5-5-5-5-5-5-5-5-5-5-5---------|

G|------------------------------------------------|
D|------------------------------------------------|
A|--12--12--12--12--12--12---7--7--7--7--7--7-----|
E|--10--10--10--10--10--10---5--5--5--5--5--5-----|

G|-------------------------------------|
D|-------------------------------------|
A|--12--12--12--12--12--12---7--7~-----| x2  
E|--10--10--10--10--10--10---5--5~-----|            
Submit corrections


        Letsgetdangerous lessons Hard to play? Try these video lessons and learn fast Letsgetdangerous lessons
        
↑ Back to top | Tablatures and chords for acoustic guitar and electric guitar, ukulele, drums are parodies/interpretations of the original songs. You may use it for private study, scholarship, research or language learning purposes only