Home » I » Iron Butterfly »

Iron Butterfly - Most Anything You Want Bass

Artists:  A B C D E F G H I J K L M N O P Q R S T U V W X Y Z # 

Most Anything You Want Bass

(Version #1)
Iron Butterfly
-------------------------------------------------------------------------------
-------------------------------------------------------------------------------

Tuning: standard EADG

This is the sickest bassline I have ever heard!  Fantastic.
I won't try to even pretend to know what Lee Dorman is doing on some of it but this is 
kind of like the bare bones of it.  Please be gentle if rating.

INTRO

G|-2---5-2-------------------------------------------------------------------|
D|--4-5---5--5---------------------------------------------------------------|
A|---------5--5-4-3----------------------------------------------------------|
E|---------------------------------------------------------------------------|

1st verse "most anything that you want girl...." play x 8

G|------5-3------------------------------------------------------------------|
D|--3/5-----5-4-3-3---1------------------------------------------------------|
A|-3----------------3---1-2-3------------------------------------------------|
E|---------------------------------------------------------------------------|

Chorus "just wanna make you happy...." play x 2
G|----------------------------------------------------------2----------------|
D|---------77-5-4-3----------7--5-------7----7----7---5-5-4--5-4-3-----------|
A|------25---------------4-7--7--5-7----------------7--------------3-5-3-5---|
E|-3~-5-------------55-7-------------5----5----5-----------------------------|

G|---------------------------------------------------------------------------|
D|---------------------------------------------------------------------------|
A|-3-5-----------------------------------------------------------------------|
E|---------------------------------------------------------------------------|

Repeat first verse x 4
Repeat chorus x 4
Repeat intro
BRIDGE:  ah hell...starts at 01:30

Play something like this x 4
G|-----5-3-------------------------------------------------------------------|
D|-3/5----5-4----------------------------------------------------------------|
A|----------------1---1-2-3--------------------------------------------------|
E|------------1/3---3--------------------------------------------------------|

Then at 01:45 play something like this x 2
G|---------------------------------------------------------------------------|
D|-7-5------------5-------5-------8-7-7-5------------------------------------|
A|----7-6-3---3-5-----5-7-----6-8---------7-6---6---6---6--------------------|
E|----------3-------5-------6-----------------6---6---6----------------------|

Repeat first verse x 8
Repeat chorus x 4
Repeat intro
Repeat something similar to the bridge (both parts)

Please add in anything you think is missing.  This is an incredible bassline
            
Submit corrections

↑ Back to top | Tablatures and chords for acoustic guitar and electric guitar, ukulele, drums are parodies/interpretations of the original songs. You may use it for private study, scholarship, research or language learning purposes only