Home » I » Iron Butterfly »

Iron Butterfly - Look For The Sun Tabs

Artists:  A B C D E F G H I J K L M N O P Q R S T U V W X Y Z # 

Look For The Sun Tabs

(ver. 1) Click to play this song!
Iron Butterfly
                            Look for the Sun

                                  by

                             Iron Butterfly

Iron Butterfly is one of the most under appreciated bands to have ever existed. This 
song is a classic and I haven't been able to find any tabs for it, so maybe this will help 
those of you who can't find any as well.

|----------------------|
|----------------------|
|-------------9--7--5--|
|--------5----9--7--5--|
|----7-----7--7--5--3--|
|--0---0---------------|

|-3---0-------0--0---3---0-------------|
|-1---1---0---1--1---1---1---0---------|
|-2---0---0---0--3---2---0---0---------|
|-3---2---0---2--2---3---2---0--5h7-5--|
|-----3---2---3--3-------3---2---------|
|---------3------------------3---------|

|-----------------------------------|
|-2--2------1--2--------------------|
|-2--2------0--2--------------------|
|-2--2------2--2-----0h2-0h2---0h2--|
|-0--0------3--0---0---------0------|
|--------3--------------------------|

|---------------------------------------------------------0---|
|-2--2------1--2--2---1--3--1---2--2------1--2--2---3--3--0---|
|-2--2------0--2--2---0--2--0---2--2------2--2--2---2--0--1---|
|-2--2------2--2--2---2--0--2---2--2------3--2--2---0--0--2---|
|-0--0------3--0--0---3-----3---0--0------3--0--0------2--2---|
|--------3-----------------------------3---------------3--0---|

Pick these chords
|-----------------------------------------------|
|-3---2---3---2---3---2---3---2---3---2------3--|
|-4---2---4---2---4---2---4---2---4---2------2--|
|-4---2---4---2---4---2---4---2---4---2------0--|
|-2---0---2---0---2---0---2---0---2---0--2-4----|
|-----------------------------------------------|

Guitar Solo is played on this chord
|-----|
|--6--|
|--5--|
|--4--|
|--5--|
|-----|

Guitar solo ends with this:
|-----------------|
|-----------------|
|--7--7-7--9------|
|--7--7-7--9---5--|
|--5--5-5--7---5--|
|--------------3--|

And that's as best as I could get it.
            
Submit corrections

↑ Back to top | Tablatures and chords for acoustic guitar and electric guitar, ukulele, drums are parodies/interpretations of the original songs. You may use it for private study, scholarship, research or language learning purposes only