Home » I » Iron Butterfly »

Iron Butterfly - In The Crowds Tabs

Artists:  A B C D E F G H I J K L M N O P Q R S T U V W X Y Z # 

In The Crowds Tabs

(ver. 1) Click to play this song!
Iron Butterfly
                          In The Crowds

                                by

                          Iron Butterfly

to add some. Enjoy.

Intro (Bass)
|-------------------------------------------------|
|-------------------------------------------------|
|-------------------------------------------------|
|-------------------------------------------------|
|-3-3-3-3-3-3-3-3-3-3-3-3-3-3-3-3-3-3-3-3-3-3-3-3-|
|-------------------------------------------------|

Guitar
|----------------8-----------------------|
|-9----11-9-8----------------------------|
|----------------------------------------|
|-------------------------------------10-|
|---------------------10---8-10-11-10----|
|----------------------------------------|

|-13----11-13-8---9-8------------9--13-12-|
|---------------------11-9----11----------|
|-----------------------------------------|
|-----------------------------------------|
|-----------------------------------------|
|-----------------------------------------|

Verse
|----------------------------------------------|
|--9---8---6---5----9---8---6---5----9---8---6-|
|-10---8---6---5---10---8---6---5---10---8---6-|
|-10---8---6---5---10---8---6---5---10---8---6-|
|--8---6---4---3----8---6---4---3----8---6---4-|
|----------------------------------------------|

|--------------------------------------------------|
|--------------------------------------------------|
|-------8-6-5---5----------8-6-5---4----4h5p4h5p2--|
|-6-8-6-------8------6-8-6-------8-----------------|
|--------------------------------------------------|
|--------------------------------------------------|

|-------------------------------------|
|-------------------------------------|
|--------7-----7-9--7-9-10--9-7-------|
|-7-9-10----10-------------------10-7-|
|-------------------------------------|
|-------------------------------------|

|-------------------------------------|
|-------------------------------------|
|----7-10-9--12-10-9--12-10-9--7-9----|
|-10-------------------------------10-|
|-------------------------------------|
|-------------------------------------|

|-------------------------------------------------|
|----------------------13----13----13----13----13-|
|------7------------------------------------------|
|-7h10---10---------10----10----10----10----10----|
|-------------------------------------------------|
|-------------------------------------------------|

For the ending, just rattle around on a D and C. I haven't completely figured out how to 
play the end. But when I do, I will update this tab.
            
Submit corrections

↑ Back to top | Tablatures and chords for acoustic guitar and electric guitar, ukulele, drums are parodies/interpretations of the original songs. You may use it for private study, scholarship, research or language learning purposes only