Home » I » Iron Butterfly »

Iron Butterfly - Butterfly Blue Tabs

Artists:  A B C D E F G H I J K L M N O P Q R S T U V W X Y Z # 

Butterfly Blue Tabs

(ver. 1) Click to play this song!
Iron Butterfly
Iron Butterfly-Butterfly Blue
Tuning:Standard E

E-----------------|
B-----------------|
G-7-6-5-3-5-3-----|
D------------5-3-5|
A-----------------|
E-----------------| Play 2x

E-------------------------|
B-------------------------|
G-7-6-5-4-7-6-5-3-5-3-----|
D--------------------3-5-3|
A-------------------------|
E-------------------------|

E-------------|-----------------|
B-------------|-----------------|
G-----3h5-3b5r|-----7-5-5b7p5-5r|
D--------5----|--------7-----7--|
A-7-5---------|-5-7-------------|
E-5-3---------|-3-5-------------| Play this 5x including the lick below

E---------------|
B---------------|
G-7-5-3-5-7-5B7R|
D---------------|
A---------------|
E---------------|

Sorry I have not tabbed the solo I have not figured it out yet but I will post it up 
when I have figured it out listen to the song to get the feel have fun!

B-Bend
R-Reverb
H-Hammer on
P-Pull Off
            
Submit corrections

↑ Back to top | Tablatures and chords for acoustic guitar and electric guitar, ukulele, drums are parodies/interpretations of the original songs. You may use it for private study, scholarship, research or language learning purposes only