Home » I » Irish Rovers »

Irish Rovers - Puff The Magic Dragon Tabs

Artists:  A B C D E F G H I J K L M N O P Q R S T U V W X Y Z # 

Puff The Magic Dragon Tabs

(ver. 2) Click to play this song!
Irish Rovers
--3-3-3-3-2---0--3-3-----------------3-3-3-0-2-3-5---|
------------3--------3-3-1-1-3-1-0-3-----------------|
-----------------------------------------------------|
-----------------------------------------------------|
-----------------------------------------------------|
-----------------------------------------------------|

--3-3-3-3-2---0--3-3-----------------3-3-0-3-3-2-3---|
------------3--------3-3-1-1-3-1-0-3-----------------|
-----------------------------------------------------|
-----------------------------------------------------|
-----------------------------------------------------|
-----------------------------------------------------|
            
Submit corrections

↑ Back to top | Tablatures and chords for acoustic guitar and electric guitar, ukulele, drums are parodies/interpretations of the original songs. You may use it for private study, scholarship, research or language learning purposes only