» » »

I Prevail - Scars Tabs

Artists:  A B C D E F G H I J K L M N O P Q R S T U V W X Y Z # 

Scars Tabs

(ver. 1) Click to play this song!
I Prevail
 Rating:
4.3/5 (9 votes)

 Scars lessons Tabs too difficult? Try these video lessons and learn fast
 
                [Intro]
C#|-------------------|
G#|-------------------|
E |-------------------|
B |-------------------|
F#|-------------------|
B |-0--0-0-0--0--0-=--|

Try to tear us apart but know that we'll wear our scars

C#|---------------------------|-------------------------------|
G#|---------------------------|-------------------------------|
E |---------------------------|-------------------------------|
B |---------------------------|-------------------------------|
F#|-0----0--------------------|-5----0------------------------|
B |-0--0-0--0--0--0-0-0-0-0-0-|----0-0--0--0--0-0-0-0-0-0-0-0-|

C#|-----------------------|------------------------|
G#|-----------------------|------------------------|
E |-----------------------|------------------------|
B |-----------------------|------------------------|
F#|-8----8-=----8----8-=--|-5----5-----------------|
B |-8--8-8-=----8--8-8-=--|-5--5-5--5---1--1--1--1-|

C#|---------------------------|-------------------------------|
G#|---------------------------|-------------------------------|
E |---------------------------|-------------------------------|
B |---------------------------|-------------------------------|
F#|-0----0--------------------|-5----0------------------------|
B |-0--0-0--0--0--0-0-0-0-0-0-|----0-0--0--0--0-0-0-0-0-0-0-0-|

C#|-----------------------|------------------------|
G#|-----------------------|------------------------|
E |-----------------------|------------------------|
B |-----------------------|------------------------|
F#|-8----8-=----8----8-=--|-5----5------1-----1----|
B |-8--8-8-=----8--8-8-=--|-5--5-5--5---1-----1----|

[Verse 1]
C#|-----|
G#|-----|
E |\7~--|
B |-0~--|
F#|-0~--|
B |-0~--|

Excuses, excuses are all that I hear
all I can see when I look in the mirror
I can't escape all these thoughts in my mind
they're waiting for me night after night
  
C#|-----------------------|-----------------------|
G#|-----------------------|-----------------------|
E |-----------------------|-----------------------|
B |-0---------------------|-0---------------------|
F#|-0---0---8--8--0--5--7-|-0---0---8--8--0--5--3-|
B |-0---0---8--8--0--5--7-|-0---0---8--8--0--5--3-|

C#|-----------------------------|--------------------------|
G#|-11---11--11-----------------|--------------------------|
E |-x----x---x------------------|--------------------------|
B |-8----8---8------------------|-5------------------------|
F#|------------------8----------|-5---5--5------1----------|
B |---------------8--8--8--8--8-|-5---5--5---5--1--1--1--1-|

C#|-----------------------|-----------------------|
G#|-----------------------|-----------------------|
E |-----------------------|-----------------------|
B |-0---------------------|-0---------------------|
F#|-0---0---8--8--0--5--7-|-0---0---8--8--0--5--3-|
B |-0---0---8--8--0--5--7-|-0---0---8--8--0--5--3-|

C#|-----------------------------|--------------------------|
G#|-11---11--11-----------------|--------------------------|
E |-x----x---x------------------|--------------------------|
B |-8----8---8------------------|-5------------------------|
F#|------------------8----------|-5---5--5------1----------|
B |---------------8--8--8--8--8-|-5---5--5---5--1--1--1--1-|

[Pre-chorus]
C#|--------------|-------------|
G#|--------------|-------------|
E |-7~------/10--|\9~----10-=--|
B |--------------|-------------|
F#|-5~------/8---|\7~----9--=--|
B |--------------|-------------|

[Chorus]
C#|-------------------------------------|
G#|-------------------------------------|
E |-7-7-7-7-7-7-7-7-7-7-7-7-12-12-12-12-|
B |-x-x-x-x-x-x-x-x-x-x-x-x-x--x--x--x--|
F#|-5-5-5-5-5-5-5-5-5-5-5-5-10-10-10-10-|
B |-------------------------------------|

C#|-------------------------------------------------|
G#|-------------------------------------------------|
E |-10-10-10-10-10-10-10-10-10-10-10-10-12-12-12-12-|
B |-x--x--x--x--x--x--x--x--x--x--x--x--x--x--x--x--|
F#|-8--8--8--8--8--8--8--8--8--8--8--8--10-10-10-10-|
B |-------------------------------------------------|

C#|-------------------------------------------------|
G#|-------------------------------------------------|
E |-14-14-14-14-14-14-14-14-14-14-14-14-15-15-15-15-|
B |-x--x--x--x--x--x--x--x--x--x--x--x--x--x--x--x--|
F#|-12-12-12-12-12-12-12-12-12-12-12-12-13-13-13-13-|
B |-------------------------------------------------|

C#|---------------------------------------------|
G#|---------------------------------------------|
E |-12-12-12-12-12-12-12-12-12-12-12-12-9-9-9-9-|
B |-x--x--x--x--x--x--x--x--x--x--x--x--x-x-x-x-|
F#|-10-10-10-10-10-10-10-10-10-10-10-10-7-7-7-7-|
B |---------------------------------------------|

C#|-------------------------------------------------|
G#|-------------------------------------------------|
E |-10-10-10-10-10-10-10-10-10-10-10-10-12-12-12-12-|
B |-x--x--x--x--x--x--x--x--x--x--x--x--x--x--x--x--|
F#|-8--8--8--8--8--8--8--8--8--8--8--8--10-10-10-10-|
B |-------------------------------------------------|

C#|-------------------------------------------------|
G#|-------------------------------------------------|
E |-10-10-10-10-10-10-10-10-10-10-10-10-12-12-12-12-|
B |-x--x--x--x--x--x--x--x--x--x--x--x--x--x--x--x--|
F#|-8--8--8--8--8--8--8--8--8--8--8--8--10-10-10-10-|
B |-------------------------------------------------|

C#|-------------------------------------------------|
G#|-------------------------------------------------|
E |-14-14-14-14-14-14-14-14-14-14-14-14-15-15-15-15-|
B |-x--x--x--x--x--x--x--x--x--x--x--x--x--x--x--x--|
F#|-12-12-12-12-12-12-12-12-12-12-12-12-13-13-13-13-|
B |-------------------------------------------------|

C#|--------------------------------------------|
G#|--------------------------------------------|
E |-12-12-12-12-12-12-12-12-12-12-12-12--------|
B |-x--x--x--x--x--x--x--x--x--x--x--x---------|
F#|-10-10-10-10-10-10-10-10-10-10-10-10--------|
B |--------------------------------------1--1--|

[Instrumental]
C#|---------------------------|-------------------------------|
G#|---------------------------|-------------------------------|
E |---------------------------|-------------------------------|
B |---------------------------|-------------------------------|
F#|-0----0--------------------|-5----0------------------------|
B |-0--0-0--0--0--0-0-0-0-0-0-|----0-0--0--0--0-0-0-0-0-0-0-0-|

C#|-----------------------|------------------------|
G#|-----------------------|------------------------|
E |-----------------------|------------------------|
B |-----------------------|------------------------|
F#|-8----8-=----8----8-=--|-5----5------1-----1----|
B |-8--8-8-=----8--8-8-=--|-5--5-5--5---1-----1----|

[Verse 2]
(Clean, reverb)
C#|---------------------------------|----5---------------------8~--|
G#|----5-----6~--------5-----8--6~--|-------6--5~--------5---------|
E |-7-----7---------7-----7---------|-7---------------7-----7------|
B |---------------------------------|------------------------------|
F#|---------------------------------|------------------------------|
B |---------------------------------|------------------------------|

C#|---------------------------------|----5------------------------|
G#|----5-----6~--------5-----8--6~--|-------6--5~--------6----8~--|
E |-7-----7---------7-----7---------|-7---------------7-----7-----|
B |---------------------------------|-----------------------------|
F#|---------------------------------|-----------------------------|
B |---------------------------------|-----------------------------|

(Dirty)
C#|-----------------------|-----------------------|
G#|-----------------------|-----------------------|
E |-----------------------|-----------------------|
B |-0---------------------|-0---------------------|
F#|-0---0---8--8--0--5--7-|-0---0---8--8--0--5--3-|
B |-0---0---8--8--0--5--7-|-0---0---8--8--0--5--3-|

C#|-----------------------------|--------------------------|
G#|-11---11--11-----------------|--------------------------|
E |-x----x---x------------------|--------------------------|
B |-8----8---8------------------|-5------------------------|
F#|------------------8----------|-5---5--5------1----------|
B |---------------8--8--8--8--8-|-5---5--5---5--1--1--1--1-|

[Pre-chorus]
C#|-------------------------------------|-----------------------|
G#|-------------------------------------|-----------------------|
E |-7-7-7-7-7-7-7-7-9-9-9-9-10-10-10-10-|-9-9-9-9-9-9-9-9-12-=--|
B |-x-x-x-x-x-x-x-x-x-x-x-x-x--x--x--x--|-x-x-x-x-x-x-x-x-x--=--|
F#|-5-5-5-5-5-5-5-5-7-7-7-7-8--8--8--8--|-7-7-7-7-7-7-7-7-10-=--|
B |-------------------------------------|-----------------------|

[Chorus]
C#|-------------------------------------|
G#|-------------------------------------|
E |-7-7-7-7-7-7-7-7-7-7-7-7-12-12-12-12-|
B |-x-x-x-x-x-x-x-x-x-x-x-x-x--x--x--x--|
F#|-5-5-5-5-5-5-5-5-5-5-5-5-10-10-10-10-|
B |-------------------------------------|

C#|-------------------------------------------------|
G#|-------------------------------------------------|
E |-10-10-10-10-10-10-10-10-10-10-10-10-12-12-12-12-|
B |-x--x--x--x--x--x--x--x--x--x--x--x--x--x--x--x--|
F#|-8--8--8--8--8--8--8--8--8--8--8--8--10-10-10-10-|
B |-------------------------------------------------|

C#|-------------------------------------------------|
G#|-------------------------------------------------|
E |-14-14-14-14-14-14-14-14-14-14-14-14-15-15-15-15-|
B |-x--x--x--x--x--x--x--x--x--x--x--x--x--x--x--x--|
F#|-12-12-12-12-12-12-12-12-12-12-12-12-13-13-13-13-|
B |-------------------------------------------------|

C#|---------------------------------------------|
G#|---------------------------------------------|
E |-12-12-12-12-12-12-12-12-12-12-12-12-9-9-9-9-|
B |-x--x--x--x--x--x--x--x--x--x--x--x--x-x-x-x-|
F#|-10-10-10-10-10-10-10-10-10-10-10-10-7-7-7-7-|
B |---------------------------------------------|

C#|-------------------------------------------------|
G#|-------------------------------------------------|
E |-10-10-10-10-10-10-10-10-10-10-10-10-12-12-12-12-|
B |-x--x--x--x--x--x--x--x--x--x--x--x--x--x--x--x--|
F#|-8--8--8--8--8--8--8--8--8--8--8--8--10-10-10-10-|
B |-------------------------------------------------|

C#|-------------------------------------------------|
G#|-------------------------------------------------|
E |-10-10-10-10-10-10-10-10-10-10-10-10-12-12-12-12-|
B |-x--x--x--x--x--x--x--x--x--x--x--x--x--x--x--x--|
F#|-8--8--8--8--8--8--8--8--8--8--8--8--10-10-10-10-|
B |-------------------------------------------------|

C#|-------------------------------------------------|
G#|-------------------------------------------------|
E |-14-14-14-14-14-14-14-14-14-14-14-14-15-15-15-15-|
B |-x--x--x--x--x--x--x--x--x--x--x--x--x--x--x--x--|
F#|-12-12-12-12-12-12-12-12-12-12-12-12-13-13-13-13-|
B |-------------------------------------------------|

C#|--------------------------------------------|
G#|--------------------------------------------|
E |-12-12-12-12-12-12-12-12-12-12-12-12--------|
B |-x--x--x--x--x--x--x--x--x--x--x--x---------|
F#|-10-10-10-10-10-10-10-10-10-10-10-10--1--1--|
B |--------------------------------------1--1--|

[Instrumental]
                               gradually bend 1/2 step
C#|-------------------------|-------------------------|
G#|-------------------------|-------------------------|
E |-7-7-7-7--7---7-7-7-7--7-|-7-7-7-7--7---7-7-7-7--7-|
B |-x-x-x-x--x---x-x-x-x--x-|-x-x-x-x--x---x-x-x-x--x-|
F#|-5-5-5-5--5---5-5-5-5--5-|-5-5-5-5--5---5-5-5-5--5-|
B |-------------------------|-------------------------|

                              gradually bend 1/2 step
C#|-------------------------|-------------------------|
G#|-------------------------|-------------------------|
E |-7-7-7-7--7---7-7-7-7--7-|-7-7-7-7--7---7-7-7-7--7-|
B |-x-x-x-x--x---x-x-x-x--x-|-x-x-x-x--x---x-x-x-x--x-|
F#|-5-5-5-5--5---5-5-5-5--5-|-5-5-5-5--5---5-5-5-5--5-|
B |-------------------------|-------------------------|

[Bridge]
C#|-12-12-12-12-12-12-12-12-12-12-12-12-13-13-13-13-|
G#|-x--x--x--x--x--x--x--x--x--x--x--x--x--x--x--x--|
E |-9--9--9--9--9--9--9--9--9--9--9--9--10-10-10-10-|
B |-------------------------------------------------|
F#|-------------------------------------------------|
B |-------------------------------------------------|

C#|-12-12-12-12-12-12-12-12-12-12-12-12-12-12-12-12-|
G#|-x--x--x--x--x--x--x--x--x--x--x--x--x--x--x--x--|
E |-9--9--9--9--9--9--9--9--9--9--9--9--9--9--9--9--|
B |-------------------------------------------------|
F#|-------------------------------------------------|
B |-------------------------------------------------|

(1 bar pause)
C#|--------------------------|------------------------------|
G#|--------------------------|------------------------------|
E |--------------------------|------------------------------|
B |--------------------------|------------------------------|
F#|-0------------0-----------|-0------------5-5-3-3-6-6-5-5-|
B |-0-0-0--0-0---0-0-0--0-0--|-0-0-0--0-0-------------------|

C#|--------------------------|--------------------|
G#|--------------------------|--------------------|
E |--------------------------|--------------------|
B |--------------------------|-1---0--1--3---5--6-|
F#|-0------------0-----------|-1---0--1--3---5--6-|
B |-0-0-0--0-0---0-0-0--0-0--|-1---0--1--3---5--6-|

C#|--------------------------|------------------------------|
G#|--------------------------|------------------------------|
E |--------------------------|------------------------------|
B |--------------------------|------------------------------|
F#|-0------------0-----------|-0------------5-5-3-3-6-6-5-5-|
B |-0-0-0--0-0---0-0-0--0-0--|-0-0-0--0-0-------------------|

C#|--------------------------|--------------------|--------------------|
G#|--------------------------|--------------------|--------------------|
E |--------------------------|--------------------|--------------------|
B |--------------------------|-1---0--1--3---5--6-|--------------------|
F#|-0------------0-----------|-1---0--1--3---5--6-|-1---0--1--3---5--6-|
B |-0-0-0--0-0---0-0-0--0-0--|-1---0--1--3---5--6-|-1---0--1--3---5--6-|

[Chorus]
In the heat of the moment, when fear has you frozen
you're crashing and burning, when life's at it's coldest
C#|-------------------------------------------------|
G#|-------------------------------------------------|
E |-14-14-14-14-14-14-14-14-14-14-14-14-15-15-15-15-|
B |-x--x--x--x--x--x--x--x--x--x--x--x--x--x--x--x--|
F#|-12-12-12-12-12-12-12-12-12-12-12-12-13-13-13-13-|
B |-------------------------------------------------|

C#|---------------------------------------------|
G#|---------------------------------------------|
E |-12-12-12-12-12-12-12-12-12-12-12-12-9-9-9-9-|
B |-x--x--x--x--x--x--x--x--x--x--x--x--x-x-x-x-|
F#|-10-10-10-10-10-10-10-10-10-10-10-10-7-7-7-7-|
B |---------------------------------------------|

C#|-------------------------------------------------|
G#|-------------------------------------------------|
E |-10-10-10-10-10-10-10-10-10-10-10-10-12-12-12-12-|
B |-x--x--x--x--x--x--x--x--x--x--x--x--x--x--x--x--|
F#|-8--8--8--8--8--8--8--8--8--8--8--8--10-10-10-10-|
B |-------------------------------------------------|

C#|-------------------------------------------------|
G#|-------------------------------------------------|
E |-10-10-10-10-10-10-10-10-10-10-10-10-12-12-12-12-|
B |-x--x--x--x--x--x--x--x--x--x--x--x--x--x--x--x--|
F#|-8--8--8--8--8--8--8--8--8--8--8--8--10-10-10-10-|
B |-------------------------------------------------|

C#|-------------------------------------------------|
G#|-------------------------------------------------|
E |-14-14-14-14-14-14-14-14-14-14-14-14-15-15-15-15-|
B |-x--x--x--x--x--x--x--x--x--x--x--x--x--x--x--x--|
F#|-12-12-12-12-12-12-12-12-12-12-12-12-13-13-13-13-|
B |-------------------------------------------------|

C#|--------------------------------------------|
G#|--------------------------------------------|
E |-12-12-12-12-12-12-12-12-12-12-12-12--------|
B |-x--x--x--x--x--x--x--x--x--x--x--x---------|
F#|-10-10-10-10-10-10-10-10-10-10-10-10--1--1--|
B |--------------------------------------1--1--|

[Outro]
C#|-------------------------------------------------|
G#|-------------------------------------------------|
E |-14-14-14-14-14-14-14-14-14-14-14-14-12-12-12-12-|
B |-x--x--x--x--x--x--x--x--x--x--x--x--x--x--x--x--|
F#|-12-12-12-12-12-12-12-12-12-12-12-12-10-10-10-10-|
B |-------------------------------------------------|

C#|-------------------------------------------------|
G#|-------------------------------------------------|
E |-10-10-10-10-10-10-10-10-10-10-10-10-12-12-12-12-|
B |-x--x--x--x--x--x--x--x--x--x--x--x--x--x--x--x--|
F#|-8--8--8--8--8--8--8--8--8--8--8--8--10-10-10-10-|
B |-------------------------------------------------|

C#|-------------------------------------------------|
G#|-------------------------------------------------|
E |-14-14-14-14-14-14-14-14-14-14-14-14-15-15-15-15-|
B |-x--x--x--x--x--x--x--x--x--x--x--x--x--x--x--x--|
F#|-12-12-12-12-12-12-12-12-12-12-12-12-13-13-13-13-|
B |-------------------------------------------------|

C#|--------------------------------------------|
G#|--------------------------------------------|
E |-12-12-12-12-12-12-12-12-12-12-12-12--------|
B |-x--x--x--x--x--x--x--x--x--x--x--x---1--1--|
F#|-10-10-10-10-10-10-10-10-10-10-10-10--1--1--|
B |--------------------------------------1--1--|            
Submit corrections


        Scars lessons Hard to play? Try these video lessons and learn fast Scars lessons
        
↑ Back to top | Tablatures and chords for acoustic guitar and electric guitar, ukulele, drums are parodies/interpretations of the original songs. You may use it for private study, scholarship, research or language learning purposes only