» » »

I Prevail - Heart Vs Mind Tabs

Artists:  A B C D E F G H I J K L M N O P Q R S T U V W X Y Z # 

Heart Vs Mind Tabs

(ver. 1) Click to play this song!
I Prevail
 Rating:
4.3/5 (23 votes)

 Heart Vs Mind  lessons Tabs too difficult? Try these video lessons and learn fast
 
                [Main Riff After Electronic Intro]

Both Guitars
E|-------------------------------------------------------------|
B|-------------------------------------------------------------|
G|-------------------------------------------------------------|
D|----------------2--2--2~~~~~~~~------------------------------|
A|-2--2--2~~~~~~~~2--2--2~~~~~~~~5--5--5~~~~~~~~4--4--4~~~~~~~-|
E|-2--2--2~~~~~~~~0--0--0~~~~~~~~5--5--5~~~~~~~~4--4--4~~~~~~~-|
B|-0--0--0~~~~~~~~---------------3--3--3~~~~~~~~2--2--2~~~~~~~-|

E|-------------------------------------------------------------|
B|-------------------------------------------------------------|
G|-------------------------------------------------------------|
D|----------------2--2--2~~~~~~~~5--5--5~~~~~~~~4--4--4~~~~~---|
A|-2--2--2~~~~~~~~2--2--2~~~~~~~~5--5--5~~~~~~~~4--4--4~~~~~---|
E|-2--2--2~~~~~~~~0--0--0~~~~~~~~3--3--3~~~~~~~~2--2--2~~~~~---|
B|-0--0--0~~~~~~~~---------------------------------------------|


[Verse 1]

Both Guitars(2x)
E|--------------------------------------------------------------------------------|
B|--------------------------------------------------------------------------------|
G|--------------------------------------------------------------------------------|
D|--------------------------------------------------------------------------------|
A|--------------------------------------------------------------------7-5-4-4-5-4-|
E|--------------------------------------------------------------------------------|
B|-0-0-0---0--0--0-0-0-0-12\---0--0-0-0--0-0-0--0-0-0--0--0--0-0-0-0--5-3-2-2-3-2-|
   * * *   *  *  * * * *       *  * * *  * * *  * * *  *  *  * * * *


[2nd Half Of Verse]

Guitar 1
   T            T           T           T
E|---------------------------------------------------------|
B|---------------------------------------------------------|
G|-11-4-7-(14x)-9-3-6-(14x)-7-0-4-(14x)-9-3-6-(14x)-11~~~~-|
D|---------------------------------------------------------|
A|---------------------------------------------------------|
E|---------------------------------------------------------|
B|---------------------------------------------------------|

Guitar 2
E|--------------------------------------------------------------------------------|
B|--------------------------------------------------------------------------------|
G|--------------------------------------------------------------------------------|
D|--------------------------------------------------------------------------------|
A|--------------------------------------------------------------------7-5-4-4-5-4-|
E|--------------------------------------------------------------------------------|
B|-0-0-0---0--0--0-0-0-0-12\---0--0-0-0--0-0-0--0-0-0--0--0--0-0-0-0--5-3-2-2-3-2-|
   * * *   *  *  * * * *       *  * * *  * * *  * * *  *  *  * * * *
E|--------------------------------------------------------------------------------------|
B|--------------------------------------------------------------------------------------|
G|--------------------------------------------------------------------------------------|
D|--------------------------------------------------------------------------------------|
A|--------------------------------------------------------------------7-5-4-4-5-4-2~~~~-|
E|--------------------------------------------------------------------------------2~~~~-|
B|-0-0-0---0--0--0-0-0-0-12\---0--0-0-0--0-0-0--0-0-0--0--0--0-0-0-0--5-3-2-2-3-2-0~~~~-|
   * * *   *  *  * * * *       *  * * *  * * *  * * *  *  *  * * * *


[Chorus]

Both Guitars(I didn't take the time to figure out how many
times to play each chord, just gave you the chords)
E|--------------------------------------------------------------------------|
B|--------------------------------------------------------------------------|
G|--------------------------------------------------------------------------|
D|-5--------2--------------------------5--------2----------------------4----|
A|-5--------2--------2--------5--------5--------2--------2--------5----4----|
E|-3--------0--------2--------5--------3--------0--------2--------5----2----|
B|-------------------0--------3--------------------------0--------3---------|

Repeat Main Riff


[Verse 2](Quiet Part):

Guitar 1
E|-12----12----10----10----14----14----9----9----12----12----10----10----14----14----12----12----|
B|----12----12----12----12----12----12---12---12----12----12----12----12----12----12----12----12-|
G|-----------------------------------------------------------------------------------------------|
D|-----------------------------------------------------------------------------------------------|
A|-----------------------------------------------------------------------------------------------|
E|-----------------------------------------------------------------------------------------------|
B|-----------------------------------------------------------------------------------------------|


[2nd Half Of 2nd Verse]

Guitar 1(2x)
   T      T      T      T      T      T      T      T      T      T      T      T
E|-------------------------------------------------------------------------------------|
B|-------------------------------------------------------------------------------------|
G|-12-4-7-12-4-7-12-4-7-11-4-7-11-4-7-11-4-7-12-4-7-12-4-7-12-4-7-14-4-7-14-4-7-14-4-7-|
D|-------------------------------------------------------------------------------------|
A|-------------------------------------------------------------------------------------|
E|-------------------------------------------------------------------------------------|
B|-------------------------------------------------------------------------------------|

Guitar 2(2x)
E|------------------------------------------------------------------------|
B|------------------------------------------------------------------------|
G|------------------------------------------------------------------------|
D|------------------------------4---------------------------------------4-|
A|--------------------------------5-4-------------------------------4-5---|
E|------------------------------2---------------------------------------2-|
B|-0---0-0--0--0--0---0-0-0-0-----3-2--0---0-0--0--0--0---0-0-0-0---2-3---|
       * *            * * * *              * *            * * * *

Repeat Chorus


[Buildup Before Breakdown]

Guitar 1
E|----------------------------------------------------------------------|
B|----------------------------------------------------------------------|
G|----------------------------------------------------------------------|
D|----------------------------------------------------------------------|
A|-2~~~~~~~~~~2~~~~------2~~~~~~~~~~------------------------------------|
E|-2~~~~~~~~~~2~~~~2-2-2-2~~~~~~~~~~------------------------------------|
B|-0~~~~~~~~~~0~~~~0-0-0-0~~~~~~~~~~0-0-0--0-0-0-0--0--0-0-0-0--0--0--0-|
                   * * *            * *    * * * *     * * * *
Guitar 2
E|-----------------------------------|
B|-----------------------------------|
G|-----------------------------------|
D|-----------------------------------|
A|-2~~~~~~~~~~2~~~~------2~~~~~~~~~~-|
E|-2~~~~~~~~~~2~~~~2-2-2-2~~~~~~~~~~-|
B|-0~~~~~~~~~~0~~~~0-0-0-0~~~~~~~~~~-|
                   * * *

[Breakdown]

Both Guitars(2x)
E|------------------------------------------------------------------------|
B|------------------------------------------------------------------------|
G|------------------------------------------------------------------------|
D|------------------------------------------------------------------------|
A|------------------------------------------------------------------------|
E|------------------------------------------------------------------------|
B|-0-0---0-0-0-0--0--0-0-0-0--0---0---0--12\--0-0-0-0---0-0-0-0--0-0--0-0-|
   * *   * * * *  *  * * * *                  * * * *   * * * *  * *  * *

Repeat Chorus

Repeat Main Riff            
Submit corrections


        Heart Vs Mind  lessons Hard to play? Try these video lessons and learn fast Heart Vs Mind  lessons
        
↑ Back to top | Tablatures and chords for acoustic guitar and electric guitar, ukulele, drums are parodies/interpretations of the original songs. You may use it for private study, scholarship, research or language learning purposes only