Home » I » Into It Over It »

Into It Over It - Your Lasting Image Tabs

Artists:  A B C D E F G H I J K L M N O P Q R S T U V W X Y Z # 

Your Lasting Image Tabs

(ver. 1) Click to play this song!
Into It Over It
 Rating:
4.3/5 (18 votes)
                [Intro]
e |---------------------------------------------------------------------------|
B |---------------------------------------------------------------------------|
G |-------------------------------------7-------------------------------------|
D |----------------8----------------------------8-----------------------------|
A |---------8h10------10---8---6------------6---------------------------------|
D#|----0---------------------------7---------------5--------------------------|

e |---------------------------------------------------------------------------|
B |---------------------------------------------------------------------------|
G |-------------------------------------7-------------------------------------|
D |----------------8----------------------------8-----------------------------|
A |---------8h10------10---8---6------------6---------------------------------|
D#|----9---------------------------7---------------5--------------------------|
            
Submit corrections

↑ Back to top | Tablatures and chords for acoustic guitar and electric guitar, ukulele, drums are parodies/interpretations of the original songs. You may use it for private study, scholarship, research or language learning purposes only