» » »

Into It Over It - The Worst Company To Keep Tabs

Artists:  A B C D E F G H I J K L M N O P Q R S T U V W X Y Z # 

The Worst Company To Keep Tabs

(ver. 1) Click to play this song!
Into It Over It
 Rating:
4/5 (4 votes)

 The Worst Company To Keep  lessons Tabs too difficult? Try these video lessons and learn fast
 
                Tuning: DADF#AE

INTRO:
e |--------------------------------------------------------------------|
A |---2---2---2---2---5---5---5---5---9---9---9---9---9---9---9---9----|
F#|---1---1---1---1---4---4---4---4---8---8---8---8---7---7---8---8----|
D |--------------------------------------------------------------------|
A |--------------------------------------------------------------------|
D |--2---2---2---2---5---5---5---5---9---9---9---9---9---9---9---9-----|

e |---------------------------------------------------------------------|
A |---5---5---5---5---5---5---5---5---5---5---5---5---5---5---5---5-----|
F#|---5---5---5---5---4---4---4---4---3---3---3---3---3---3---3---3-----|
D |---------------------------------------------------------------------|
A |---------------------------------------------------------------------|
D |--5---5---5---5---5---5---5---5---5---5---5---5---5---5---5---5------|

e |---------------------------------------------------------------------|
A |---9---9---9---9---9---9---9---9---5---5---5---5---8---8---8---8-----|
F#|---8---8---8---8---7---7---8---8---5---5---5---5---8---8---8---8-----|
D |---------------------------------------------------------------------|
A |---------------------------------------------------------------------|
D |--9---9---9---9---9---9---9---9---5---5---5---5---8---8---8---8------|

e |------------------|
A |---5---5---5---5--|   
F#|---3---3---3---3--|  X2
D |------------------|
A |------------------|
D |--5---5---5---5---|

VERSE:
e |------------------|
A |---5---5---5---5--|   
F#|---3---3---3---3--|  X2
D |------------------|
A |------------------|
D |--5---5---5---5---|

e |------------------|
A |---5---5---5---5--|
F#|---5---5---5---5--|  X2
D |------------------|
A |------------------|
D |--5---5---5---5---|

e |----------------------------------------------------------------------|
A |---9---9---9---9---9---9---9---9---5---5---5---5---5---5---5---5------|
F#|---8---8---8---8---7---7---8---8---5---5---5---5---4---4---4---4------|
D |----------------------------------------------------------------------|
A |----------------------------------------------------------------------|
D |--9---9---9---9---9---9---9---9---5---5---5---5---5---5---5---5-------|

e |------------------|
A |---5---5---5---5--|   
F#|---3---3---3---3--|  X2
D |------------------|
A |------------------|
D |--5---5---5---5---|

e |------------------|
A |---5---5---5---5--|
F#|---5---5---5---5--|  X2
D |------------------|
A |------------------|
D |--5---5---5---5---|

e |-----------------------------------------------------------------------|
A |---9---9---9---9---9---9---9---9---5---5---5---5---5---5---5---5-------|
F#|---8---8---8---8---7---7---8---8---5---5---5---5---4---4---4---4-------|
D |-----------------------------------------------------------------------|
A |-----------------------------------------------------------------------|
D |--9---9---9---9---9---9---9---9---5---5---5---5---5---5---5---5--------|

CHORUS:
e |------------------|
A |---2---2---2---2--|
F#|---1---1---1---1--|  X2
D |------------------|
A |------------------|
D |--2---2---2---2---|

e |------------------|
A |---5---5---5---5--|
F#|---4---4---4---4--|  X2
D |------------------|
A |------------------|
D |--5---5---5---5---|


e |------------------------------------------------------------------------|
A |---9---9---9---9---9---9---9---9---5---5---5---5---5---5---5---5--------|
F#|---8---8---8---8---7---7---8---8---5---5---5---5---4---4---4---4--------|
D |------------------------------------------------------------------------|
A |------------------------------------------------------------------------|
D |--9---9---9---9---9---9---9---9---5---5---5---5---5---5---5---5---------|

e |------------------|          
A |---2---2---2---2--|
F#|---1---1---1---1--|  X2   
D |------------------|
A |------------------|
D |--2---2---2---2---|

e |------------------|
A |---5---5---5---5--|
F#|---4---4---4---4--|  X2
D |------------------|
A |------------------|
D |--5---5---5---5---|

e |------------------|
A |---5---5---5---5--|   
F#|---3---3---3---3--|  X4
D |------------------|
A |------------------|
D |--5---5---5---5---|

(VERSE) 

CHORUS 2: 
e |------------------|
A |---2---2---2---2--|
F#|---1---1---1---1--|  X2
D |------------------|
A |------------------|
D |--2---2---2---2---|

e |------------------|
A |---5---5---5---5--|
F#|---4---4---4---4--|  X2
D |------------------|
A |------------------|
D |--5---5---5---5---|


e |---------------------------------------------------------------------------|
A |---9---9---9---9---9---9---9---9---5---5---5---5---5---5---5---5-----------|
F#|---8---8---8---8---7---7---8---8---5---5---5---5---4---4---4---4-----------|
D |---------------------------------------------------------------------------|
A |---------------------------------------------------------------------------|
D |--9---9---9---9---9---9---9---9---5---5---5---5---5---5---5---5------------|

e |------------------|          
A |---2---2---2---2--|
F#|---1---1---1---1--|  X2   
D |------------------|
A |------------------|
D |--2---2---2---2---|

e |------------------|
A |---5---5---5---5--|
F#|---4---4---4---4--|  X2
D |------------------|
A |------------------|
D |--5---5---5---5---|

e |------------------|
A |---5---5---5---5--|   
F#|---3---3---3---3--|  X2
D |------------------|
A |------------------|
D |--5---5---5---5---|

OUTRO:
e |---------------------------------------------------------------------------|
A |---9---9---9---9---9---9---9---9---5---5---5---5---8---8---8---8-----------|
F#|---8---8---8---8---7---7---8---8---5---5---5---5---8---8---8---8-----------|
D |---------------------------------------------------------------------------|
A |---------------------------------------------------------------------------|
D |--9---9---9---9---9---9---9---9---5---5---5---5---8---8---8---8------------|

e |----------------------------------|
A |---5---5---5---5---5---5---5---5--|   
F#|---3---3---3---3---5---5---3---3--|  
D |----------------------------------|
A |----------------------------------|
D |--5---5---5---5---5---5---4---4---|

e |----------------------------------------------------------------------------|
A |---2---2---2---2---5---5---5---5---12---12---10---10---9---9---7---7--------|
F#|---1---1---1---1---4---4---4---4---12---12---10---10---8---8---7---7--------|
D |----------------------------------------------------------------------------|
A |----------------------------------------------------------------------------|
D |--2---2---2---2---5---5---5---5---12---12---10---10---9---9---7---7---------|

e |-------------------------------------|
A |---5---5---5---5---5---5---5---5--5--|
F#|---5---5---5---5---4---4---4---4--3--|
D |----------------------------------0--|
A |----------------------------------x--|
D |--5---5---5---5---5---5---5---5---5--|
            
Submit corrections


        The Worst Company To Keep  lessons Hard to play? Try these video lessons and learn fast The Worst Company To Keep  lessons
        
↑ Back to top | Tablatures and chords for acoustic guitar and electric guitar, ukulele, drums are parodies/interpretations of the original songs. You may use it for private study, scholarship, research or language learning purposes only