Home » I » Into It Over It »

Into It Over It - Ravenswood Tabs

Artists:  A B C D E F G H I J K L M N O P Q R S T U V W X Y Z # 

Ravenswood Tabs

(ver. 1) Click to play this song!
Into It Over It
 Rating:
4/5 (4 votes)
                This tab is not in the right key, but you can definitely play it this way as long as 
you're not playing along with the song.

tuning: standard (Evan never uses standard)

e|------------------------------3----3----3-----------------------|
b|------------------------------3----3----3-----------------------|
g|---2/4-0------0---------0-----0----0----0-----------------------|
d|----------2/4-------2---------0----0----0-----------------------|
a|-----------------3------------2----0----2-----------------------|
E|------------------------------3----2----------------------------|
                        (For a moment, I'm seeing you too clear)


e|-----------------3-------------------------------------------|
b|-----------------3-------------------------------------------|
g|-----------------0-------------------------------------------|
d|-----9---9---9---0-------------------------------------------|
a|-----9---6---7---2-------------------------------------------|
E|-----7---7---8---3-------------------------------------------|

  (I'm fighting back your tears,
      with simple spirits and jokes)



e|------------------------------3----3----3-----------------------|
b|------------------------------3----3----3-----------------------|
g|---2/4-0------0---------0-----0----0----0-----------------------|
d|----------2/4-------2---------0----0----0-----------------------|
a|-----------------3------------2----0----2-----------------------|
E|------------------------------3----2----------------------------|

                          (but in the lines between what I read and your
                              seat I don't have it in me anymore)


e|-----------------3-------------------------------------------|
b|-----------------3-------------------------------------------|
g|-----------------0-------------------------------------------|
d|-----9---9---9---0-------------------------------------------|
a|-----9---6---7---2-------------------------------------------|
E|-----7---7---8---3-------------------------------------------|
      (to tell you I've had too much
        to tell you it's time to leave)


e|-----------------------------------------------------------------|
b|-----------------------------------------------------------------|
g|-----------------------------------------------------------------|
d|----12---12---10-------------------------------------------------|
a|----12---9----10-------------------------------------------------|
E|----10---10---8--------------------------------------------------|

     (because that was then
       and this is now)

e|---------------------------------------------------------------|
b|---------------------------------------------------------------|
g|---------------------------------------------------------------|
d|-----9---9---9------------------2------------------------------|
a|-----9---6---7------------------3------------------------------|
E|-----7---7---8------------------3------------------------------|

      (because truth be told
                               we have weirded out)


e|------------------------------3----3----3-----------------------|
b|------------------------------3----3----3-----------------------|
g|---2/4-0------0---------0-----0----0----0-----------------------|
d|----------2/4-------2---------0----0----0-----------------------|
a|-----------------3------------2----0----2-----------------------|
E|------------------------------3----2----------------------------|

    (everyone we know)     (instrumental)

e|------------------------------------------------------------|
b|------------------------------------------------------------|
g|------------------------------------------------------------|
d|-----9---9---9----------------------------------------------|
a|-----9---6---7----------------------------------------------|
E|-----7---7---8----------------------------------------------|

     (instrumental)

e|------------------------------3----3----3-----------------------|
b|------------------------------3----3----3-----------------------|
g|---2/4-0------0---------0-----0----0----0-----------------------|
d|----------2/4-------2---------0----0----0-----------------------|
a|-----------------3------------2----0----2-----------------------|
E|------------------------------3----2----------------------------|

    (it's probably for the best
                   I never write your name by mine
                        but I can't quite spell that )

e|------------------------------------------------------------|
b|------------------------------------------------------------|
g|------------------------------------------------------------|
d|-----9---9---2----------------------------------------------|
a|-----9---6---3----------------------------------------------|
E|-----7---7---3----------------------------------------------|

     (out this time it's true
          so now I'm telling you it's on the finest fine print)

e|-----------------------------------------------------------------|
b|-----------------------------------------------------------------|
g|-----------------------------------------------------------------|
d|----12---12---10-------------------------------------------------|
a|----12---9----10-------------------------------------------------|
E|----10---10---8--------------------------------------------------|

      (because that was then and this is now)

e|------------------------------------------------------------|
b|------------------------------------------------------------|
g|------------------------------------------------------------|
d|-----9---9---2----------------------------------------------|
a|-----9---6---2----------------------------------------------|
E|-----7---7---3----------------------------------------------|

       (so let's figure it out
          and write it down)

e|-----------------------------------------------------------|
b|-----------------------------------------------------------|
g|-----------------------------------------------------------|
d|--2--------------------------------------------------------|
a|--2--------------------------------------------------------|
E|--3--------------------------------------------------------|

     (let's keep one last secret from every one we )

e|--3-3-3-3-----------------------------------------------------|
b|--3-3-3-3-----------------------------------------------------|
g|--0-0-0-0-----------------------------------------------------|
d|--0-0-0-0-----------------------------------------------------|
a|--2-2p0-2-----------------------------------------------------|
E|--3-3-3-3-----------------------------------------------------|

    (know)

especially for the last 4 chords and the outro listen to the song to know how to play 
it. hope this helps, it's a fun song to play!

<3 N
            
Submit corrections

↑ Back to top | Tablatures and chords for acoustic guitar and electric guitar, ukulele, drums are parodies/interpretations of the original songs. You may use it for private study, scholarship, research or language learning purposes only