» » »

Into It Over It - Open Casket Tabs

Artists:  A B C D E F G H I J K L M N O P Q R S T U V W X Y Z # 

Open Casket Tabs

(ver. 1) Click to play this song!
Into It Over It
 Rating:
4.3/5 (16 votes)

 Open Casket  lessons Tabs too difficult? Try these video lessons and learn fast
 
                Tuning: C#G#C#F#G#C#

Capo: 3

[Verse]

C#|-------------------------------------------------------|
G#|-------------0--------------------------0--------------|
F |-1h2p1-------------0---------0h1p0------------0-----0--|x4
C#|-------0h2p0-------------0--------0h2p0----------3-----|
G#|-----------------------------3-------------------2-p0--|
C#|-0--------------2-----5--------------------5-----------|


[Prechorus]

C#|----------------0-----0-----|
G#|--------0----------0--0-----|
F |------------3h5----5--3-\1--|
C#|----4h5------------5--4-\2--|
G#|-------------------x--------|
C#|-5-----------------5--4-\2--|


[Chorus]

C#|---------------------------------------------------------0--|
G#|-------------0--------------0-------------0------0----------|
F |-0h1p0----------0h1p0----------0h1p0---------0h5------------|
C#|-------0h2p0----------0h2p0---------0h2p0----------0h4h5----|
G#|----------------2-------------------------------------------|
C#|-0-----------------------------2-------------5--------------|

C#|---------------------------------------------x-----0-----|
G#|-------------0--------------0-------------0--x--0--0-----|
F |-0h1p0----------0h1p0----------0h1p0---------x-/5--3-\1--|
C#|-------0h2p0----------0h2p0---------0h2p0----x-/5--4-\2--|
G#|----------------2----------------------------x-----------|
C#|-0-----------------------------2-------------x-/5--4-\2--|


[Interlude]

C#|----------------------0--------------------------0-----|
G#|-------------0---------------0----------0-----0--0-----|
F |-1h2p1-------------0---------0h1p0------------5--3-\1--|x3
C#|-------0h2p0-------------0--------0h2p0----------4-\2--|
G#|-----------------------------3-------------------x-----|
C#|-0--------------2-----5--------------------5-----4-\2--|

C#|----------------------0--------------------x-----0-----|
G#|-------------0---------------0----------0--x--0--0-----|
F |-1h2p1-------------0---------0h1p0---------x-/5--3-\1--|x1
C#|-------0h2p0-------------0--------0h2p0----x-----4-\2--|
G#|-----------------------------3-------------x-----x-----|
C#|-0--------------2-----5--------------------x-----4-\2--|

[Verse x4]

[Chorus x3]

[Chorus continued]

C#|-------------------------------------------------------------------0-----|
G#|-------------0--------------0-------------0------0--------------0--0-----|
F |-0h1p0----------0h1p0----------0h1p0---------0h5---------4------4--3-\1--|
C#|-------0h2p0----------0h2p0---------0h2p0----------0h4h5--------5--4--2--|
G#|----------------2-----------------------------------------------x--x-----|
C#|-0-----------------------------2-------------5------------------5--4--2--|

[Interlude x4]            
Submit corrections


        Open Casket  lessons Hard to play? Try these video lessons and learn fast Open Casket  lessons
        
↑ Back to top | Tablatures and chords for acoustic guitar and electric guitar, ukulele, drums are parodies/interpretations of the original songs. You may use it for private study, scholarship, research or language learning purposes only