» » »

Into It Over It - Old Lace And Ivory Tabs

Artists:  A B C D E F G H I J K L M N O P Q R S T U V W X Y Z # 

Old Lace And Ivory Tabs

(ver. 1) Click to play this song!
Into It Over It
 Rating:
4.3/5 (19 votes)

 Old Lace And Ivory  lessons Tabs too difficult? Try these video lessons and learn fast
 
                [Intro]

(0:00 0:16)

eb|----------0-------0--------------0--------0-----------------------------------|
Bb|-------0-------0-------0-----0---------0--------------------------------------|
Gb|-----------------------------------------------8------------------------------|
Db|----7-------7------7------7---------7--------------9--------------------------| x4
Ab|------------------------------------------------------------------------------|
Eb|------------------------------------------------------------------------------|


[Verse 1 ]

(0:17-0:50)

eb|-------0------0-----------------0---------4p0-------------0--------0---------------0------0----------|
Bb|----0------0-------0---------0-----------------4------0--------0--------0------0-------0-------0-----|
Gb|-----------------------------------------------------------------------------------------------------|
Db|-7------7-------7---------4-------6----------------2--------2--------2------2-------2-------2--------|
Ab|-------------------------------------4---------------------------------------------------------------|
Eb|-----------------------------------------------------------------------------------------------------|
Glossed over...

eb|-------0------0-----------------0---------4p0-------------0--------0---------------0------0----------|
Bb|----0------0-------0---------0-----------------4------0--------0--------0------0-------0-------0-----|
Gb|-----------------------------------------------------------------------------------------------------|
Db|-7------7-------7---------4-------6----------------2--------2--------2------2-------2-------2--------|
Ab|-------------------------------------4---------------------------------------------------------------|
Eb|-----------------------------------------------------------------------------------------------------|
Here's some driftwood...

eb|-------0------0-----------------0---------4p0-------------0--------0---------------0------0----------|
Bb|----0------0-------0---------0-----------------4------0--------0--------0------0-------0-------0-----|
Gb|-----------------------------------------------------------------------------------------------------|
Db|-7------7-------7---------4-------6----------------2--------2--------2------2-------2-------2--------|
Ab|-------------------------------------4---------------------------------------------------------------|
Eb|-----------------------------------------------------------------------------------------------------|
Despite a tendency for standards

eb|------0-------0-----------------0---------4p0--------------0---------0--------------7--------------------|
Bb|----0------0-------0---------0------------------4------0---------0--------0------------------10-----9----|
Gb|--------------------------------------------------------------------------------8---------8--------------|
Db|-7------7-------7---------4-------6----------------2--------2---------2------9--------9----------9-------|
Ab|--------------------------------------4------------------------------------------------------------------|
Eb|---------------------------------------------------------------------------------------------------------|
So when the wreckage pulls me under...


[Chorus ]

(0:51-1:07)

eb|--------0-------0----------------0-----------4p0--------------0-------0-----------------7----------------|
Bb|-----0-------0---------------0---------------------4-------0-------0--------0-------------------10----9--|
Gb|------------------------------------------------------------------------------------8-------8------------|
Db|--4------4--------4--6--7-----------6-----------------2--------2-------2-------9--------9----------9-----|
Ab|---------------------------------------4-----------------------------------------------------------------|
Eb|---------------------------------------------------------------------------------------------------------|
Set sail...

eb|--------0-------0----------------0-----------4p0--------------0-------0-----------0~---------------------|
Bb|-----0-------0---------------0---------------------4-------0-------0--------0-----4~---------------------|
Gb|----------------------------------------------------------------------------------4~---------------------|
Db|--4------4--------4--6--7-----------6-----------------2--------2-------2----------2~---------------------|
Ab|---------------------------------------4-----------------------------------------------------------------|
Eb|---------------------------------------------------------------------------------------------------------|
Sudden swell...


[Instrumental]

(1:08-1:16)

eb|----------0-------0--------------0--------0------------------------------------------------------------|
Bb|-------0-------0-------0-----0---------0---------------------------------------------------------------|
Gb|-----------------------------------------------8-------------------------------------------------------|
Db|----7-------7------7------7---------7--------------9---------------------------------------------------| x2
Ab|-------------------------------------------------------------------------------------------------------|
Eb|-------------------------------------------------------------------------------------------------------|


[Verse 2]

(1:17-1:33)

eb|-------0------0-----------------0---------4p0-------------0--------0---------------0------0----------|
Bb|----0------0-------0---------0-----------------4------0--------0--------0------0-------0-------0-----|
Gb|-----------------------------------------------------------------------------------------------------|
Db|-7------7-------7---------4-------6----------------2--------2--------2------2-------2-------2--------|
Ab|-------------------------------------4---------------------------------------------------------------|
Eb|-----------------------------------------------------------------------------------------------------|
So let me carry you through...

eb|------0-------0-----------------0---------4p0--------------0---------0--------------7--------------------|
Bb|----0------0-------0---------0------------------4------0---------0--------0------------------10-----9----|
Gb|--------------------------------------------------------------------------------8---------8--------------|
Db|-7------7-------7---------4-------6----------------2--------2---------2------9--------9----------9-------|
Ab|--------------------------------------4------------------------------------------------------------------|
Eb|---------------------------------------------------------------------------------------------------------|
                            We'll hide between...

[Chorus ]

(1:34-1:50)

eb|--------0-------0----------------0-----------4p0--------------0-------0-----------------7----------------|
Bb|-----0-------0---------------0---------------------4-------0-------0--------0-------------------10----9--|
Gb|------------------------------------------------------------------------------------8-------8------------|
Db|--4------4--------4--6--7-----------6-----------------2--------2-------2-------9--------9----------9-----|
Ab|---------------------------------------4-----------------------------------------------------------------|
Eb|---------------------------------------------------------------------------------------------------------|
Set sail...

eb|--------0-------0----------------0-----------4p0--------------0-------0-----------0~---------------------|
Bb|-----0-------0---------------0---------------------4-------0-------0--------0-----4~---------------------|
Gb|----------------------------------------------------------------------------------4~---------------------|
Db|--4------4--------4--6--7-----------6-----------------2--------2-------2----------2~---------------------|
Ab|---------------------------------------4-----------------------------------------------------------------|
Eb|---------------------------------------------------------------------------------------------------------|
Sudden swell...


[Bridge 1]

(1:51-2:07)

eb|--------------------------------------------------|------------------------------------------------------|
Bb|-------------------------5------------------------|--------------------5---------------------------------|
Gb|-----------------4---/8------8--------------------|------------4---/8-----8------------------------------|
Db|--------4----/6-------------------9~----------9~--|-----4---/6---------------9~---------------7--9-------|
Ab|----/7--------------------------------9h11--------|-/7------------------------------7---9h11-------------|
Eb|--------------------------------------------------|------------------------------------------------------|

eb|--------------------------------------------------|------------------------------------------------------|
Bb|-------------------------5------------------------|--------------------5------------5---5~---------------|
Gb|-----------------4---/8------8--------------------|------------4---/8-----8---------8-----8~-------------|
Db|--------4----/6-------------------9~----------9~--|-----4---/6---------------9~-----9-------9~-----------|
Ab|----/7--------------------------------9h11--------|-/7------------------------------7--------------------|
Eb|--------------------------------------------------|------------------------------------------------------|


[Bridge 2]

(2:08-2:43)

eb|-----------7~---------------------------------7~---------------------------------------------------------|
Bb|------------------------5--5~--------------------9-------------------------------------------------------|
Gb|-----------9~-----------8----8~--------------------9-----9~-----9---9-------8~----8-8--------------------|
Db|--9h11------------------9------9~--------9/11------------11~----11--11------9~----9-9--------------------|
Ab|------------------------7--------------------------------------------------------------------------------|
Eb|---------------------------------------------------------------------------------------------------------|


eb|-----------7~-------------------------------7~-----------------------------------------------------------|
Bb|-----------------------5--5~---------------------9--------7/9--------------------------------------------|
Gb|-----------9~----------8----8~---------------------9----------9~----9--8---------------------------------|
Db|--9h11-----------------9------9~--------9/11-------------------------------9~----------------------------|
Ab|-----------------------7---------------------------------------------------------------------------------|
Eb|---------------------------------------------------------------------------------------------------------|

eb|-----------7~---------------------------------7~---------------------------------------------------------|
Bb|------------------------5--5~--------------------9-------------------------------------------------------|
Gb|-----------9~-----------8----8~--------------------9-----9~-----9---9-------8~----8-8--------------------|
Db|--9h11------------------9------9~--------9/11------------11~----11--11------9~----9-9--------------------|
Ab|------------------------7--------------------------------------------------------------------------------|
Eb|---------------------------------------------------------------------------------------------------------|


eb|-----------7~--------------------------------7~----------------------------------------------------------|
Bb|------------------5--5~-------------------------9--------------------------------------------------------|
Gb|-----------9~-----8----8~--------------------------9----8~-----------------------------------------------|
Db|--9h11------------9------9~--------9/11------------------------------------------------------------------|
Ab|------------------7--------------------------------------------------------------------------------------|
Eb|---------------------------------------------------------------------------------------------------------|


[Outro]

(2:44-end)

(Guitar 1)
eb|----------0-------0--------------0--------0-----------------------------------------------------------|
Bb|-------0-------0-------0-----0---------0--------------------------------------------------------------|
Gb|-----------------------------------------------8------------------------------------------------------|
Db|----7-------7------7------7---------7--------------9--------------------------------------------------|
Ab|------------------------------------------------------------------------------------------------------|
Eb|------------------------------------------------------------------------------------------------------|

(Guitar 2)
eb|-----------------------|-----------------------------------------------------------------------------|
Bb|-----------------------|-----------------------------------------------------------------------------|
Gb|-----------------------|-----------------------------------------------------------------------------|
Db|--9~-------------------|--11~----9~------------------------------------------------------------------|
Ab|-------11~---9~---7~---|--------------7~---6~--------------------------------------------------------|
Eb|-----------------------|-----------------------------------------------------------------------------|

(Guitar 3)
eb|--/16~-------/7~-------/12~-----------12------------9------------------------------------------------|
Bb|----------------------------------16------16----12-----12--------------------------------------------|
Gb|------------------------------------------------------------9---8~-----------------------------------|
Db|-----------------------------------------------------------------------------------------------------|
Ab|-----------------------------------------------------------------------------------------------------|
Eb|-----------------------------------------------------------------------------------------------------|
            
Submit corrections


        Old Lace And Ivory  lessons Hard to play? Try these video lessons and learn fast Old Lace And Ivory  lessons
        
↑ Back to top | Tablatures and chords for acoustic guitar and electric guitar, ukulele, drums are parodies/interpretations of the original songs. You may use it for private study, scholarship, research or language learning purposes only