» » »

Into It Over It - No Sleep Til Humboldt Tabs

Artists:  A B C D E F G H I J K L M N O P Q R S T U V W X Y Z # 

No Sleep Til Humboldt Tabs

(ver. 1) Click to play this song!
Into It Over It
 Rating:
3.2/5 (27 votes)

 No Sleep Til Humboldt  lessons Tabs too difficult? Try these video lessons and learn fast
 
                Tuning: D#/G#/C#/F/A#/D#


Evan starts the song off with some picking, and I think this is a good approximation of what he's doing
if it isn't 100% correct

X8 on the fourth time bend the note the B string 
D#|------------------0--------------------------------------------------------|
A#|------------------8--------------------------------------------------------|
F |--------9---------9--------------------------------------------------------|
C#|--10---10---10---10--------------------------------------------------------|
G#|---0---------0-------------------------------------------------------------|
D#|---------------------------------------------------------------------------|

Start strumming here

X4 the strumming speeds up on the last chord the second time through
D#|---0--------0--0----0------------------------------------------------------|
A#|---8--------0--7----0------------------------------------------------------|
F |---9--------0--0----6------------------------------------------------------|
C#|--10--------7--7----7------------------------------------------------------|
G#|---0--------0--0----5------------------------------------------------------|
D#|------------7--7-----------------------------------------------------------|

X1
D#|--0----0-----0---0---------------------------------------------------------|
A#|--0----0-----0--10---------------------------------------------------------|
F |--3----8----10---0---------------------------------------------------------|
C#|--4----9----10--10---------------------------------------------------------|
G#|--4----9-----0---0---------------------------------------------------------|
D#|--2----7----10--10---------------------------------------------------------|

X1
D#|---------------------------------------------------------------------------|
A#|--14--14--14--14--14-------------------------------------------------------|
F |---0---0---0---0---0-------------------------------------------------------|
C#|--14--14--14--14--14-------------------------------------------------------|
G#|---0---0---0---0--12-------------------------------------------------------|
D#|--14--13--12--11--10-------------------------------------------------------|

Until the end:
D#|----0-----0----------------------------------------------------------------|
A#|---14----14----------------------------------------------------------------|
F |----0-----0----------------------------------------------------------------|
C#|---14----14----------------------------------------------------------------|
G#|----0----12----------------------------------------------------------------|
D#|---------10----------------------------------------------------------------|            
Submit corrections


        No Sleep Til Humboldt  lessons Hard to play? Try these video lessons and learn fast No Sleep Til Humboldt  lessons
        
↑ Back to top | Tablatures and chords for acoustic guitar and electric guitar, ukulele, drums are parodies/interpretations of the original songs. You may use it for private study, scholarship, research or language learning purposes only