Home » I » Into It Over It »

Into It Over It - No Good Before Noon Bass

Artists:  A B C D E F G H I J K L M N O P Q R S T U V W X Y Z # 

No Good Before Noon Bass

(ver. 1) Click to play this song!
Into It Over It
 Rating:
2.6/5 (24 votes)
                Tuning: C#/G#/C#/F or D/A/D/F#

This was tabbed from the Little Elephant video.  The album version is a half step higher.

Comes in after "...the choice to never leave the bed again."
F |---------------------------------------------------------------------------|
C#|---------------------------------------------------------------------------|
G#|---------------------------------------------------------------------------|
C#|--5~---5~---5~---5~--------------------------------------------------------|

X2
F |---------------------------------------------------------------------------|
C#|---------------------------------------------------------------------------|
G#|---------------------------------------------------------------------------|
C#|--5~---0~---5~---0~---5~---0~---9--0--7------------------------------------|

X1
F |---------------------------------------------------------------------------|
C#|---------------------------------------------------------------------------|
G#|---------------------------------------------------------------------------|
C#|--9--0--7----9--0--7---5~--------------------------------------------------|

The album version ends here

The live version goes to this

X16
F |---------------------------------------------------------------------------|
C#|---------------------------------------------------------------------------|
G#|---------------------------------------------------------------------------|
C#|---5~---0~-----------------------------------------------------------------|

Then this to once to end it

F |---------------------------------------------------------------------------|
C#|---------------------------------------------------------------------------|
G#|---------------------------------------------------------------------------|
C#|--9--0--7----9--0--7---5~--------------------------------------------------|
            
Submit corrections

↑ Back to top | Tablatures and chords for acoustic guitar and electric guitar, ukulele, drums are parodies/interpretations of the original songs. You may use it for private study, scholarship, research or language learning purposes only