» » »

Into It Over It - Need You Around Tabs

Artists:  A B C D E F G H I J K L M N O P Q R S T U V W X Y Z # 

Need You Around Tabs

(ver. 1) Click to play this song!
Into It Over It
 Rating:
4/5 (4 votes)

 Need You Around lessons Tabs too difficult? Try these video lessons and learn fast
 
                
Tuning (Low to High): C#, G#, C#, F, G#, C#, Capo 2

I know the shapes are 100% accurate but the strumming pattern is very basic. 
Listen to the song to hear all of Evan’s little changes.

Main Riff
|----------------------------------------------------------------------|
|----------------------------------------------------------------------|
|--------0------0--------0------0----------0------0--------0------0----|
|----0------0--------0------0----------0------0--------0------0--------|
|----------------------------------0̑2---2------2----2---2------2------|
|--0---0------0----0---0------0----------------------------------------|

|----------------------------------------------------------------------|
|----------------------------------------------------------------------|
|--------1------1--------1------1--------1------1--------1------1------|
|----2------2--------2------2--------2------2--------2------2----------|
|----------------------------------3---3------3----3---3------3--------|
|--2---2------2----2---2------2----------------------------------------|

|----------------------------------------------------------------------|
|----------------------------------------------------------------------|
|--------5------5--------5------5--------3------3--------3------3------|
|----5------5--------5------5--------4------4--------4------4----------|
|----------------------------------------------------------------------|
|--5---5------5----5---5------5----4---4------4----4---4------4--------|

|----------------------------------------------------------------------|
|----------------------------------------------------------------------|
|--------7------7--------8------8--------3------3--------1------1------|
|----7------7--------7------7--------4------4--------2------2----------|
|--------------------------------------------------0---0------0--------|
|--7---7------7----5---5------5----0---0------0------------------------|

Bridge
|----------------------------------------------------------------------|
|----------------------------------------------------------------------|
|--------3------3--------3------3--------3------3--------3------3------|
|----3------3--------3------3--------3------3--------3------3----------|
|----------------------------------------------------------------------|
|--3---3------3----3---3------3----0---0------0----0---0------0--------|

|-----------------------------------------------7~---------------------|
|-----------------------------------------------7~---------------------|
|--------8------8--------8------8--------7------7~---------------------|
|----8------8--------8------8--------7------7--------------------------|
|----------------------------------------------------------------------|
|--8---8------8----8---8------8----7---7------7------------------------|

Last Chorus
|----------------------------------------------------------------------|
|----------------------------------------------------------------------|
|--------0------0--------0------0----------0------0--------0------0----|
|----0------0--------0------0----------0------0--------0------0--------|
|----------------------------------0̑2---2------2----2---2------2------|
|--0---0------0----0---0------0----------------------------------------|

|----------------------------------------------------------------------|
|----------------------------------------------------------------------|
|--------1------1--------1------1--------1------1--------1------1------|
|----2------2--------2------2--------2------2--------2------2----------|
|----------------------------------3---3------3----3---3------3--------|
|--2---2------2----2---2------2----------------------------------------|

|----------------------------------------------------------------------|
|----------------------------------------------------------------------|
|--------5------5--------5------5--------3------3--------3------3------|
|----5------5--------5------5--------4------4--------4------4----------|
|----------------------------------------------------------------------|
|--5---5------5----5---5------5----4---4------4----4---4------4--------|

|-----------------------------------|
|-----------------------------------|
|--------7------7--------8------8---|
|----7------7--------7------7-------|
|-----------------------------------|
|--7---7------7----5---5------5-----|

Outro
|--------------------------------------|
|--------------------------------------|
|--------3------3------3-------3-------|
|----4------4--------4---4---4---4-----|
|------------------0-------------------|
|--0---0------0------------5-----------|

End on:
|--0~~~-----|
|--0~~~-----|
|--0~~~-----|
|--0~~~-----|
|--0~~~-----|
|--0~~~-----|

Song Order:

Main Riff x3
Bridge X1
Main Riff X1
Last Chorus x1
Outro x4

Lyrics:

If I could see into your heart
Then would I know just where to start?
Because I'm lost and I need to be found
Crazy as it sounds
I need you around

If I could stand to be on my own
Then I would probably just leave you alone
But I'm gonna feel this way till I'm six feet underground
Crazy as it sounds
I need you around

Turning, tossing and turning
My love is burning me down

If I could change one thing in this world
I'd change your mind and make you my girl
Because I'm lost and I need to be found
Crazy as it sounds
I need you around

I'm gonna feel this way till I'm six feet underground
Crazy as it sounds
I need you around
            
Submit corrections


        Need You Around lessons Hard to play? Try these video lessons and learn fast Need You Around lessons
        
↑ Back to top | Tablatures and chords for acoustic guitar and electric guitar, ukulele, drums are parodies/interpretations of the original songs. You may use it for private study, scholarship, research or language learning purposes only