» » »

Into It Over It - Nashville Tn Tabs

Artists:  A B C D E F G H I J K L M N O P Q R S T U V W X Y Z # 

Nashville Tn Tabs

(ver. 1) Click to play this song!
Into It Over It
 Rating:
2.1/5 (28 votes)

 Nashville Tn  lessons Tabs too difficult? Try these video lessons and learn fast
 
                Open D# on Twelve Towns, sometimes Open D or C when playing live

X3
D#|---------------------------------------------------------------------------|
A#|--------------0------------------------------------------------------------|
G |----------0-----------0----------------------------------------------------|
D#|------0-----------5-----------0--------------------------------------------|
A#|--------------------------7------------------------------------------------|
D#|--7h9---5---0---0---0---0---0----------------------------------------------|

X1
D#|---------------------------------------------------------------------------|
A#|--------------0------------------------------------------------------------|
G |----------0-----------0----------------------------------------------------|
D#|------0-----------5h7---------0--------------------------------------------|
A#|--------------------------7------------------------------------------------|
D#|--4h5---2---0---00-------0---0---------------------------------------------|

X3
D#|---------------------------------------------------------------------------|
A#|--------------0------------------------------------------------------------|
G |----------0-----------0----------------------------------------------------|
D#|------0-----------5-----------0--------------------------------------------|
A#|--------------------------7------------------------------------------------|
D#|--7h9---5---0---0---0---0---0----------------------------------------------|

X1
D#|---------------------------------------------------------------------------|
A#|--------------0------------------------------------------------------------|
G |----------0-----------0----------------------------------------------------|
D#|------0-----------5h7---------0--------------------------------------------|
A#|--------------------------7------------------------------------------------|
D#|--4h5---2---0---00-------0---0---------------------------------------------|

X3
D#|---------------------------------------------------------------------------|
A#|--------------0------------------------------------------------------------|
G |----------0-----------0----------------------------------------------------|
D#|------0-----------5-----------0--------------------------------------------|
A#|--------------------------7------------------------------------------------|
D#|--7h9---5---0---0---0---0---0----------------------------------------------|

X1
D#|---------------------------------------------------------------------------|
A#|--------------0------------------------------------------------------------|
G |----------0-----------0----------------------------------------------------|
D#|------0-----------5h7---------0--------------------------------------------|
A#|--------------------------7------------------------------------------------|
D#|--4h5---2---0---00-------0---0---------------------------------------------|

X3
D#|---------------------------------------------------------------------------|
A#|--------------0------------------------------------------------------------|
G |----------0-----------0----------------------------------------------------|
D#|------0-----------5-----------0--------------------------------------------|
A#|--------------------------7------------------------------------------------|
D#|--7h9---5---0---0---0---0---0----------------------------------------------|

X1
D#|---------------------------------------------------------------------------|
A#|--------------0------------------------------------------------------------|
G |----------0-----------0------------7~--------------------------------------|
D#|------0-----------5h7---------0--------------------------------------------|
A#|--------------------------7------------------------------------------------|
D#|--4h5---2---0---00-------0---0---0-----------------------------------------|
            
Submit corrections


        Nashville Tn  lessons Hard to play? Try these video lessons and learn fast Nashville Tn  lessons
        
↑ Back to top | Tablatures and chords for acoustic guitar and electric guitar, ukulele, drums are parodies/interpretations of the original songs. You may use it for private study, scholarship, research or language learning purposes only