» » »

Into It Over It - Local Language Tabs

Artists:  A B C D E F G H I J K L M N O P Q R S T U V W X Y Z # 

Local Language Tabs

(ver. 1) Click to play this song!
Into It Over It
 Rating:
2.9/5 (20 votes)

 Local Language  lessons Tabs too difficult? Try these video lessons and learn fast
 
                Tuning: DADF#AD or C#G#C#FG#C# Capo 4

Intro/Verse. 
D |----------------------------------------------------------------------------|
A |--0--0--0-----0-0-----------------------------------------------------------|
F#|--0--0--0h1p0-0-0-----------------------------------------------------------|
D |--0--0--0-----0-0-----------------------------------------------------------|
A |--0--0--0h2p0-0-0-----------------------------------------------------------|
D |--0--0--0-----0-0-----------------------------------------------------------|

It's likely that there are variations on how many open strums there are between each hammer on, so listen
for them.

Verse*
On "As I swore off your local language" X1
D |---------------------------------------------------------------------------|
A |---------------------------------------------------------------------------|
F#|--1-1-11-1----5-5-55-5-----------------------------------------------------|
D |--0-0-00-0----0-0-00-0-----------------------------------------------------|
A |--2-2-22-2----5-5-55-5-----------------------------------------------------|
D |--2-2-22-2----5-5-55-5-----------------------------------------------------|

Repeat the Intro/Verse part until "As I swore off your local language" again

Then the Intro/Verse until "I guess it's easy..." then Verse* 

D |---------------------------------------------------------------------------|
A |---------------------------------------------------------------------------|
F#|--1-1-11-1----5-5-55-5-----------------------------------------------------|
D |--0-0-00-0----0-0-00-0-----------------------------------------------------|
A |--2-2-22-2----5-5-55-5-----------------------------------------------------|
D |--2-2-22-2----5-5-55-5-----------------------------------------------------|

D |---------------------------------------------------------------------------|
A |---------------------------------------------------------------------------|
F#|--2-2-22-2----5-5-55-5-----------------------------------------------------|
D |--0-0-00-0----0-0-00-0-----------------------------------------------------|
A |--2-2-22-2----5-5-55-5-----------------------------------------------------|
D |--2-2-22-2----5-5-55-5-----------------------------------------------------|

Repeat the hammer on section twice more, then into


D |-0-0-0-------0-0-0---0-0-0-0---------0-----0-0---0--------------------------|
A |-0-0-0-------0-0-0---0-0-0-0---------0-----0-0---0--------------------------|
F#|-3-3-3h5p3p0-0-0-0-----0-0-0-1p0-----0-----0-0---0--------------------------|
D |-0-0-0-------0-0-3h4---0-0-0-----2p0-0(h2)-0-0---0h2------------------------|
A |-0-0-0-------5-5-0-----2-2-2---------2-----2-0h2-0--------------------------|
D |-0-0-0-------0-0-0-----5-5-5---------0-----0-0---0--------------------------|

Repeat that section until "I'm so friggin' sick" 

X1
D |--0-0-00-0--0-0-00-0---------------------------------------------------------|
A |--0-0-00-0--0-0-00-0---------------------------------------------------------|
F#|--0-0-00-0--2-2-22-2---------------------------------------------------------|
D |--0-0-00-0--0-0-00-0---------------------------------------------------------|
A |--2-2-22-2--2-2-22-2---------------------------------------------------------|
D |--5-5-55-5--2-2-22-2---------------------------------------------------------|

Then the intro/Verse and Verse* parts repeat until the song ends on this noodle-y bit

D |---0------------------0-----------------0--------------------------------------|
A |-----2p0----------------0---------------0--------------------------------------|
F#|---------1p0--------------0-------------0--------------------------------------|
D |-------------0-----------------------0--2p0h4----------------------------------|
A |------------------0h2-------(/4)--------0--------------------------------------|
D |-0--------------0----------------4h5----0--------------------------------------|            
Submit corrections


        Local Language  lessons Hard to play? Try these video lessons and learn fast Local Language  lessons
        
↑ Back to top | Tablatures and chords for acoustic guitar and electric guitar, ukulele, drums are parodies/interpretations of the original songs. You may use it for private study, scholarship, research or language learning purposes only