» » »

Into It Over It - Can I Buy A Vwel Tabs

Artists:  A B C D E F G H I J K L M N O P Q R S T U V W X Y Z # 

Can I Buy A Vwel Tabs

(ver. 1) Click to play this song!
Into It Over It
 Rating:
4.3/5 (16 votes)

 Can I Buy A Vwel  lessons Tabs too difficult? Try these video lessons and learn fast
 
                
Intro: X8 
D |-----------------| 
A |-----------------| 
F#|----7------------| 
E |---------0-------| 
A |-----------------| 
D |--7---7----------| 
 
Verse: X2 
 
D |--------------------------------------------------------------------------------| 
A |--------------------------------------------------------------------------------| 
F#|----7-------7-------7-------2-------3-------3-------0-------2-------------------| 
E |--------0-------0-------0-------0-------0-------0-------0-----------------------| 
A |--------------------------------------------------------------------------------| 
D |--7---7---7---7---0---0---2---2---4---4---4---4---0---0---2---2-----------------| 
 
Chorus: X2 
 
D |----------------0------------------------------------------------------------------------| 
A |--------0---0----------------------------------------------------------------------------| 
F#|----7---------------3-------3---0--------12----------12----------12----------12----------| 
E |------------------------0-----------9-----------12----------12---------12----------12----| 
A |-----------------------------------------------------------------------------------------| 
D |--7---7---5---5---4---4---4---9---9---12----12----12----12----12----12----12----12-------| 
 
Intro: X8 
D |-----------------| 
A |-----------------| 
F#|----7------------| 
E |---------0-------| 
A |-----------------| 
D |--7---7----------| 
 
Verse: X2 
 
D |--------------------------------------------------------------------------------| 
A |--------------------------------------------------------------------------------| 
F#|----7-------7-------0-------2-------3-------3-------0-------2-------------------| 
E |--------0-------0-------0-------0-------0-------0-------0-----------------------| 
A |--------------------------------------------------------------------------------| 
D |--7---7---7---7---0---0---2---2---4---4---4---4---0---0---2---2-----------------| 
 
Chorus: X2 
 
D |----------------0------------------------------------------------------------------------| 
A |--------0---0----------------------------------------------------------------------------| 
F#|----7---------------3-------3---0--------12----------12----------12----------12----------| 
E |------------------------0-----------9-----------12----------12---------12----------12----| 
A |-----------------------------------------------------------------------------------------| 
D |--7---7---5---5---4---4---4---9---9---12----12----12----12----12----12----12----12-------| 
 
 
Bridge One: X2
D |-------------------------------------------------------| 
A |----------------0-----7-----------0--------------------| 
F#|-----10-------------------------------0----------------| 
E |--------0----------------0-----------------------------| 
A |------------7h9---------------7h9----------------------| 
D |--11------0--------9--------0--------------------------|

Bridge One*: X2 
D |------------------------------------------------------------------------------| 
A |-----------------------------0-------7-------7---------0----------------------| 
F#|-----10---------10---------------0-------0-------0---------0------------------| 
E |-----------0---------0--------------------------------------------------------| 
A |-------------------------7h9-----------------------7h9------------------------| 
D |--11----11----0----0---0-------0---9---9---0---0---------0--------------------|
 
Bridge 2 X2 
 
D |------------------------------| 
A |------------------------------| 
F#|----7-------7-------2---------| 
E |--------0-------0-------0-----| 
A |------------------------------| 
D |--7---7---0---0---2---2-------|  X3 
 
D |------------------------------| 
A |------------------------------| 
F#|----3-------7-------2---------| 
E |--------0-------0-------0-----| 
A |------------------------------| 
D |--4---4---0---0---2---2-------|  X1 
 
 
Chorus: X2 
 
D |----------------0------------------------------------------------------------------------| 
A |--------0---0----------------------------------------------------------------------------| 
F#|----7---------------3-------3---0--------12----------12----------12----------12----------| 
E |------------------------0-----------9-----------12----------12---------12----------12----| 
A |-----------------------------------------------------------------------------------------| 
D |--7---7---5---5---4---4---4---9---9---12----12----12----12----12----12----12----12-------|             
Submit corrections


        Can I Buy A Vwel  lessons Hard to play? Try these video lessons and learn fast Can I Buy A Vwel  lessons
        
↑ Back to top | Tablatures and chords for acoustic guitar and electric guitar, ukulele, drums are parodies/interpretations of the original songs. You may use it for private study, scholarship, research or language learning purposes only