» » »

Into It Over It - Anesthetic Tabs

Artists:  A B C D E F G H I J K L M N O P Q R S T U V W X Y Z # 

Anesthetic Tabs

(ver. 1) Click to play this song!
Into It Over It
 Rating:
4.4/5 (14 votes)

 Anesthetic  lessons Tabs too difficult? Try these video lessons and learn fast
 
                [Main part]

C#|-------------------0--|
G#|-------------0-----0--|
F |----------------------|
C#|----------------------|
G#|-----0h9h10-----------|
C#|--0-------------9-----| x19


[Pre-Chorus]

C#|-----0---------------------|
G#|---------------------------|
F |-----------0---------------|
C#|--5-----5------------------|
G#|--5-----------7p5--7/9\7---|
C#|--5------------------------|


[Chorus part 1]

C#|-------------0----------------------------|
G#|----------------------------------0-------|
F |--0-----1h3-----3/5\3---5-----------------|
C#|-----0---------------------0h4h5-----2p0--|
G#|--2----------------------------------0----|
C#|------------------------5-----------------| x2


[Chorus part 2]

C#|-------------------0---------------------|
G#|-----0---------------------------0-------|
F |--1------0------7------5-----------------|
C#|------------0-------------0h4h5-----2p0--|
G#|--2-------------7-------------------0----|
C#|-----------------------5-----------------|


[Chorus part 3]

C#|-------------0--------------------------------------------|
G#|------------------------------------------0---------------|
F |--0-----1h3-----3/5\3--1p0--------------------------------|
C#|-----0----------------------2p0-------0---0--0h4h5p4\2p0--|
G#|--2------------------------------0h2----------------------|
C#|-----------------------2----------------------------------| 



[Main part]

C#|-------------------0--|
G#|-------------0-----0--|
F |----------------------|
C#|----------------------|
G#|-----0h9h10-----------|
C#|--0-------------9-----| x19



[Bridge part 1]

C#|-------0-----------------------------|
G#|---------------0--------0------------|
F |--3/7-----0h1------0h5-----1p0-------|
C#|--0-----------------------------2p0--|
G#|----------0h2------------------------|
C#|--0----------------5-------2---------|


[Bridge part 2]

C#|-------0----------------0-----------------------------|
G#|---------------0----------------0--------0------------|
F |--3/7-----0h1------3/7-----0h1------0h5-----1p0-------|
C#|--0----------------0-----------------------------2p0--|
G#|----------0h2--------------0h2------------------------|
C#|--0----------------0----------------5-------2---------| x3


[Bridge part 3]

C#|-------------0--------|
G#|-----0-------------0--|
F |--5-------------7-----|
C#|--------4h5-----------|
G#|----------------------|
C#|--5-------------7-----|


[Main part]

C#|-------------------0--|
G#|-------------0-----0--|
F |----------------------|
C#|----------------------| x3
G#|-----0h9h10-----------|
C#|--0-------------9-----|


[Pre-Chorus]

C#|-----0---------------------|
G#|---------------------------|
F |-----------0---------------|
C#|--5-----5------------------|
G#|--5-----------7p5--7/9\7---|
C#|--5------------------------|


[Main part]

C#|-------------------0--|
G#|-------------0-----0--|
F |----------------------|
C#|----------------------| x3
G#|-----0h9h10-----------|
C#|--0-------------9-----|


[Pre-Chorus]

C#|-----0---------------------|
G#|---------------------------|
F |-----------0---------------|
C#|--5-----5------------------|
G#|--5-----------7p5--7/9\7---|
C#|--5------------------------|


[Main part]

C#|-------------------0--|
G#|-------------0-----0--|
F |----------------------|
C#|----------------------| x3
G#|-----0h9h10-----------|
C#|--0-------------9-----|


[Pre-Chorus]

C#|-----0---------------------|
G#|---------------------------|
F |-----------0---------------|
C#|--5-----5------------------|
G#|--5-----------7p5--7/9\7---|
C#|--5------------------------|


[Main part]

C#|-------------------0--|
G#|-------------0-----0--|
F |----------------------|
C#|----------------------| x3
G#|-----0h9h10-----------|
C#|--0-------------9-----|

 
[Outro]

C#|-----0--------------------0-|
G#|--------------------------0-|
F |-----------0--------------0-|
C#|--5-----5-----------------0-|
G#|--5-----------7p5--7/9\7--5-|
C#|--5-------------------------|            
Submit corrections


        Anesthetic  lessons Hard to play? Try these video lessons and learn fast Anesthetic  lessons
        
↑ Back to top | Tablatures and chords for acoustic guitar and electric guitar, ukulele, drums are parodies/interpretations of the original songs. You may use it for private study, scholarship, research or language learning purposes only