Home » I » Into It Over It »

Into It Over It - Anchor Tabs

Artists:  A B C D E F G H I J K L M N O P Q R S T U V W X Y Z # 

Anchor Tabs

(ver. 1) Click to play this song!
Into It Over It
 Rating:
4/5 (5 votes)
                Tuning is C# A C# F B E. You can tune the rest of the strings to open C# if you want,
but the song only uses the 6th, 4th, and 3rd strings. I sometimes tune the 5th string down
to a G# as well, since if accidentally struck, the A sounds really nasty with the rest 
of the notes.

Listen to the song to get the rythm.


Intro:

E|--------------------------------------------------|
B|--------------------------------------------------|
G|-----3-----------3-----------3-----------3--------|
D|-----------4-----------4-----------4-----------4--|
A|--------------------------------------------------|
E|--5-----5-----5-----5-----5-----5-----5-----5-----|


E|--------------------------------------------------|
B|--------------------------------------------------|
G|-----3-----------3-----------3-----------3--------|
D|-----------4-----------4-----------4-----------4--|
A|--------------------------------------------------|
E|--0-----0-----0-----0-----0-----0-----0-----0-----|


Verse (same as intro):


E|--------------------------------------------------|
B|--------------------------------------------------|
G|-----3-----------3-----------3-----------3--------|
D|-----------4-----------4-----------4-----------4--|
A|--------------------------------------------------|
E|--5-----5-----5-----5-----5-----5-----5-----5-----|


E|--------------------------------------------------|
B|--------------------------------------------------|
G|-----3-----------3-----------3-----------3--------|
D|-----------4-----------4-----------4-----------4--|
A|--------------------------------------------------|
E|--0-----0-----0-----0-----0-----0-----0-----0-----|


Chorus*:


E|--------------------------------------------------------------------------|
B|--------------------------------------------------------------------------|
G|-----1-----------0-----------3-----------3-----------3-----------3--------|
D|-----------0-----------0-----------0-----------0-----------0-----------0--|  2x
A|--------------------------------------------------------------------------|
E|--2-----2-----0-----0-----5-----5-----5-----5-----5-----5-----5-----5-----|

E|--------------------------------------------------|
B|--------------------------------------------------|
G|-----3-----------3-----------3-----------3--------|
D|-----------4-----------4-----------4-----------4--|
A|--------------------------------------------------|
E|--0-----0-----0-----0-----0-----0-----0-----0-----|


Chorus:

E|--------------------------------------------------------------------------|
B|--------------------------------------------------------------------------|
G|-----1-----------0-----------3-----------3-----------3-----------3--------|
D|-----------0-----------0-----------0-----------0-----------0-----------0--|  2x
A|--------------------------------------------------------------------------|
E|--2-----2-----0-----0-----5-----5-----5-----5-----5-----5-----5-----5-----|


E|--------------------------|
B|--------------------------|
G|-----0-----------0--------|
D|-----------0-----------0--|
A|--------------------------|
E|--0-----0-----0-----0-----|


Bridge:


E|--------------------------------------------------|
B|--------------------------------------------------|
G|-----1-----------3-----------0-----------0--------|
D|-----------0-----------0-----------0-----------0--| 2x
A|--------------------------------------------------|
E|--2-----2-----5-----5-----0-----0-----0-----0-----|


E|--------------------------------------------------------|
B|--------------------------------------------------------|
G|-----1-----------3-----------8-----------7--------------|
D|-----------0-----------0-----------0-----------0--------|
A|--------------------------------------------------------|
E|--2-----2-----5-----5-----9-----9-----7-----7-----------|


E|--------------------------------------------------|
B|--------------------------------------------------|
G|-----5-----------5-----------5-----------5--------|
D|-----------0-----------0-----------0-----------0--|
A|--------------------------------------------------|
E|--5-----5-----5-----5-----5-----5-----5-----5-----|

E|--------------------------------------------------|
B|--------------------------------------------------|
G|-----3-----------3-----------3-----------3--------|
D|-----------4-----------4-----------4-----------4--|
A|--------------------------------------------------|
E|--0-----0-----0-----0-----0-----0-----0-----0-----|


Intro 2x
Verse 2x
Chorus*
Verse 2x
Chorus
Bridge
Verse 2x
Chorus
Bridge

End with another measure of the last part of the bridge.

Enjoy!
            
Submit corrections

↑ Back to top | Tablatures and chords for acoustic guitar and electric guitar, ukulele, drums are parodies/interpretations of the original songs. You may use it for private study, scholarship, research or language learning purposes only