» » »

In This Moment - Sick Like Me Tabs

Artists:  A B C D E F G H I J K L M N O P Q R S T U V W X Y Z # 

Sick Like Me Tabs

(ver. 1) Click to play this song!
In This Moment
 Rating:
2.7/5 (23 votes)

 Sick Like Me  lessons Tabs too difficult? Try these video lessons and learn fast
 
                tuning : Drop A

INTRO

--------------------------------|
--------------------------------|
--------------------------------|
-x-x-x-x--x-x-------------------|
-x-x-x-x--x-x-------------------|
-x-x-x-x--x-x-------------------| x4 + x14

end on wah guitar

--------------------------------|
--------------------------------|
--------------------------------|
--------------------------------|
--------------------------------|
-0-xx-1b2-xx-1b2----------------|


RIFF-INTRO

-------------------------------------------------------------------|
-------------------------------------------------------------------|
-------------------------------------------------------------------|
-------------------------------------------------------------------|
---xx-----xx-----xx-----xxx----------xx-----xx-----xx-----xx---3-2-|
-0-xx-1b2-xx-1b2-xx-1b2-xxx-7-1--0-0-xx-1b2-xx-1b2-xx-1b2-xx-7s3-2-|
                                                               * *

-------------------------------------------------------------------|
-------------------------------------------------------------------|
-------------------------------------------------------------------|
-------------------------------------------------------------------|
---xx-----xx-----xx-----xxx----------xx-----xx-----0--0------------|
-0-xx-1b2-xx-1b2-xx-1b2-xxx-7-1--0-0-xx-1b2-xx-1b2-0--0------------|


VERSE

-------------------------------------------------------------------|
-------------------------------------------------------------------|
-------------------------------------------------------------------|
-------------------------------------------------------------------|
---xx-----xx-----xx-----xxx----------xx-----xx-----xx-----xx-------|
-0-xx-1b2-xx-1b2-xx-1b2-xxx-7-1--0-0-xx-1b2-xx-1b2-xx-1b2-xx-7//---|


-------------------------------------------------------------------|
-------------------------------------------------------------------|
-------------------------------------------------------------------|
-------------------------------------------------------------------|
---xx-----xx-----xx-----xxx----------xx-----xx-----0--0------------|
-0-xx-1b2-xx-1b2-xx-1b2-xxx-7-1--0-0-xx-1b2-xx-1b2-0--0------------|


-------------------------------------------------------------------|
-------------------------------------------------------------------|
-------------------------------------------------------------------|
-------------------------------------------------------------------|
---xx-----xx-----xx-----xxx----------xx-----xx-----xx-----xx---3-2-|
-0-xx-1b2-xx-1b2-xx-1b2-xxx-7-1--0-0-xx-1b2-xx-1b2-xx-1b2-xx-7s3-2-|
                                                               * *

-------------------------------------------------------------------|
-------------------------------------------------------------------|
-------------------------------------------------------------------|
-------------------------------------------------------------------|
---xx-----xx-----xx-----xxx----------xx-----xx-----0--0------3-2---|
-0-xx-1b2-xx-1b2-xx-1b2-xxx-7-1--0-0-xx-1b2-xx-1b2-0--0------3-2---|
                                                             * *

CHORUS

-------------------------------------------------------------------|
-------------------------------------------------------------------|
-------------------------------------------------------------------|
-0--0--0--0---8--8--10-10--10--10--12--12--------------------------|
-0--0--0--0---8--8--8--8---10--10--10--10--8--10--12--14-----------|
-0--0--0--0---8--8--8--8---10--10--10--10--8--10--12--14--15-17----| X2

RIFF

VERSE

CHORUS

PRE-BRIDGE (SAME AS INTRO)

BRIDGE

------------------------------------------------|
------------------------------------------------|
------------------------------------------------|
------------------------------------------------|
------------------------------------------------|
-0000--00--0000--00--0000--00--0000-00----------| X3.5

CHORUS

END ON

-------------------------------------------------------------------|
-------------------------------------------------------------------|
-------------------------------------------------------------------|
-------------------------------------------------------------------|
---xx-----xx-----xx-----xxx----------xx-----xx-----0--0------------|
-0-xx-1b2-xx-1b2-xx-1b2-xxx-7-1--0-0-xx-1b2-xx-1b2-0--0------------|            
Submit corrections


        Sick Like Me  lessons Hard to play? Try these video lessons and learn fast Sick Like Me  lessons
        
↑ Back to top | Tablatures and chords for acoustic guitar and electric guitar, ukulele, drums are parodies/interpretations of the original songs. You may use it for private study, scholarship, research or language learning purposes only