» » »

In This Moment - Big Bad Wolf Tabs

Artists:  A B C D E F G H I J K L M N O P Q R S T U V W X Y Z # 

Big Bad Wolf Tabs

(ver. 1) Click to play this song!
In This Moment
 Rating:
4.3/5 (13 votes)

 Big Bad Wolf  lessons Tabs too difficult? Try these video lessons and learn fast
 
                [Intro Verse Build Up] Guitar 1 & 2 
e|---------------------------------------------------------------|
B|---------------------------------------------------------------|
G|---------------------------------------------------------------|
D|---------------------------------------------------------------|
A|---------------------------------------------------------------|
E|---------------------------------------------------------------|
A|-----5b-------5b-------5b-------5b-----------------------------|          

[Main Verse/Intro] Guitar 1 & 2 
e|---------------------------------------------------------------------------------|
B|---------------------------------------------------------------------------------|
G|---------------------------------------------------------------------------------|
D|---------------------------------------------------------------------------------|
A|-5-7h-5p-0------5-7h-5p-0------3-0p---------5-7h-5p-0------5-7h-5p------1--------|
E|-5-7h-5p-0------5-7h-5p-0------3-0p---------5-7h-5p-0------5-7h-5p------1--------|
A|-5-7h-5p-0--0pm-5-7h-5p-0--0pm-3-0p---------5-7h-5p-0--0pm-5-7h-5p--0pm-1--------| 

e|---------------------------------------------------------------------------------|
B|---------------------------------------------------------------------------------|
G|---------------------------------------------------------------------------------|
D|---------------------------------------------------------------------------------|
A|-5-7h-5p-0------5-7h-5p-0------3-0p---------9-6--8-5--7-4--6-3-------------------|
E|-5-7h-5p-0------5-7h-5p-0------3-0p---------9-6--8-5--7-4--6-3-------------------| 
A|-5-7h-5p-0--0pm-5-7h-5p-0--0pm-3-0p---------9-6--8-5--7-4--6-3----0pm0pm0pm0pm---| 

[Verse 2] Guitar 1 & 2 (Listen to the song carefully for these parts)  
e|---------------------------------------------------------------|
B|---------------------------------------------------------------|
G|---------------------------------------------------------------|
D|---------------------------------------------------------------|
A|--2-pm-2-pm-------2-pm-2-pm------------2/3---------------------|
E|--2-pm-2-pm-------2-pm-2-pm------------2/3---------------------| Repeats a few times before pre chorus 
A|--2-pm-2-pm-------2-pm-2-pm------------2/3---------------------|

[Pre-Chorus] Guitar 1 & 2 
e|---------------------------------------------------------------|
B|---------------------------------------------------------------|
G|---------------------------------------------------------------|
D|---------------------------------------------------------------|
A|--7-7---7-7-7-7---7-7------------------------------------------|
E|--7-7---7-7-7-7---7-7------------------------------------------|
A|--7-7---7-7-7-7---7-7---5b-------------------------------------|

[Chorus] 
e|---------------------------------------------------------------------------------|
B|---------------------------------------------------------------------------------|
G|---------------------------------------------------------------------------------|
D|---------------------------------------------------------------------------------|
A|-5-7h-5p-0------5-7h-5p-0------3-0p---------5-7h-5p-0------5-7h-5p------1--------|
E|-5-7h-5p-0------5-7h-5p-0------3-0p---------5-7h-5p-0------5-7h-5p------1--------|
A|-5-7h-5p-0--0pm-5-7h-5p-0--0pm-3-0p---------5-7h-5p-0--0pm-5-7h-5p--0pm-1--------|(x2)

[Verse 2] Guitar 1 & 2 (Listen to the song carefully for these parts)  
e|---------------------------------------------------------------|
B|---------------------------------------------------------------|
G|---------------------------------------------------------------|
D|---------------------------------------------------------------|
A|--2-pm-2-pm-------2-pm-2-pm------------2/3---------------------|
E|--2-pm-2-pm-------2-pm-2-pm------------2/3---------------------| Repeats a few times before pre chorus 
A|--2-pm-2-pm-------2-pm-2-pm------------2/3---------------------| 

[Pre-Chorus] Guitar 1 & 2 
e|---------------------------------------------------------------|
B|---------------------------------------------------------------|
G|---------------------------------------------------------------|
D|---------------------------------------------------------------|
A|--7-7---7-7-7-7---7-7------------------------------------------|
E|--7-7---7-7-7-7---7-7------------------------------------------|
A|--7-7---7-7-7-7---7-7---5b-------------------------------------|

[Chorus] 
e|---------------------------------------------------------------------------------|
B|---------------------------------------------------------------------------------|
G|---------------------------------------------------------------------------------|
D|---------------------------------------------------------------------------------|
A|-5-7h-5p-0------5-7h-5p-0------3-0p---------5-7h-5p-0------5-7h-5p------1--------|
E|-5-7h-5p-0------5-7h-5p-0------3-0p---------5-7h-5p-0------5-7h-5p------1--------|
A|-5-7h-5p-0--0pm-5-7h-5p-0--0pm-3-0p---------5-7h-5p-0--0pm-5-7h-5p--0pm-1--------|(x2)

[Bridge] Guitar 1 & 2  
e|---------------------------------------------------------------|
B|---------------------------------------------------------------|
G|---------------------------------------------------------------|
D|---------------------------------------------------------------|
A|--7--7-----7--7-----7--7-----7--7------------------------------|
E|--7--7-----7--7-----7--7-----7--7------------------------------|
A|--7--7-----7--7-----7--7-----7--7------------------------------|

[Guitar 1]
e|---------------------------------------------------------------|
B|---------------------------------------------------------------|
G|---------------------------------------------------------------|
D|---------------------------------------------------------------|
A|---------------------------------------------------------------|
E|---------------------------------------------------------------| Repeat many times 
A|---5pm-7pm-5pm-0---5pm-7pm-5pm-0pm--0pm-3pm-0pm----------------| 
   
[Guitar 1 & 2] 
e|---------------------------------------------------------------|
B|---------------------------------------------------------------|
G|---------------------------------------------------------------|
D|---------------------------------------------------------------|
A|---------------------------------------------------------------|
E|---------------------------------------------------------------|
A|---5-7h-5p-0---5-7h-5p-0--3-0p---------------------------------|
   
[Guitar 1 & 2]
e|------------------------------------------------------------------------------|
B|------------------------------------------------------------------------------|
G|------------------------------------------------------------------------------|
D|------------------------------------------------------------------------------|
A|---5-7h-5p-0------5-7h-5p-0---3-0p---------5-7h-5p-0------5-7h-5p--1----------|
E|---5-7h-5p-0------5-7h-5p-0---3-0p---------5-7h-5p-0------5-7h-5p--1----------|
A|---5-7h-5p-0------5-7h-5p-0---3-0p---------5-7h-5p-0------5-7h-5p--1----------|  
                                                                                   Repeat twice
e|------------------------------------------------------------------------------|  
B|------------------------------------------------------------------------------|
G|------------------------------------------------------------------------------|
D|------------------------------------------------------------------------------|
A|---5-7h-5p-0------5-7h-5p-0---3-0p---------9--6--8--4-------------------------|
E|---5-7h-5p-0------5-7h-5p-0---3-0p---------9--6--8--4-------------------------| 
A|---5-7h-5p-0------5-7h-5p-0---3-0p---------9--6--8--4-------------------------| 

[Pre-Chorus] Guitar 1 & 2 
e|---------------------------------------------------------------|
B|---------------------------------------------------------------|
G|---------------------------------------------------------------|
D|---------------------------------------------------------------|
A|--7-7---7-7-7-7---7-7------------------------------------------|
E|--7-7---7-7-7-7---7-7------------------------------------------|
A|--7-7---7-7-7-7---7-7---5b-------------------------------------|

[Chorus] 
e|---------------------------------------------------------------------------------|
B|---------------------------------------------------------------------------------|
G|---------------------------------------------------------------------------------|
D|---------------------------------------------------------------------------------|
A|-5-7h-5p-0------5-7h-5p-0------3-0p---------5-7h-5p-0------5-7h-5p------1--------|
E|-5-7h-5p-0------5-7h-5p-0------3-0p---------5-7h-5p-0------5-7h-5p------1--------|
A|-5-7h-5p-0--0pm-5-7h-5p-0--0pm-3-0p---------5-7h-5p-0--0pm-5-7h-5p--0pm-1--------|(x2)            
Submit corrections


        Big Bad Wolf  lessons Hard to play? Try these video lessons and learn fast Big Bad Wolf  lessons
        
↑ Back to top | Tablatures and chords for acoustic guitar and electric guitar, ukulele, drums are parodies/interpretations of the original songs. You may use it for private study, scholarship, research or language learning purposes only