» » »

Insane Clown Posse - Play With Me Tabs

Artists:  A B C D E F G H I J K L M N O P Q R S T U V W X Y Z # 

Play With Me Tabs

(ver. 1) Click to play this song!
Insane Clown Posse
 Rating:
4/5 (4 votes)

 Play With Me lessons Tabs too difficult? Try these video lessons and learn fast
 
                Intro
e-------15--17--18--17--15------------15--16--17--15-|
B---15----------------------15----14-----------------|
G----------------------------------------------------|
D----------------------------------------------------|
A----------------------------------------------------|
E----------------------------------------------------|

Chorus:
e----18-18-18-18-18-15-15-15-16-16-16-16-16-15-15-15-|
B----------------------------------------------------|
G----------------------------------------------------|
D----------------------------------------------------|
A----------------------------------------------------|
E----------------------------------------------------|

While Other Guitar Plays:
e----------------------------------------------------|
B----------------------------------------------------|
G---3-3-3-3-3----------------------------------------|
D-------------5-5-5-6-6-6-6-6------------------------|
A-----------------------------5-5-5------------------|
E----------------------------------------------------|
            
Submit corrections


        Play With Me lessons Hard to play? Try these video lessons and learn fast Play With Me lessons
        
↑ Back to top | Tablatures and chords for acoustic guitar and electric guitar, ukulele, drums are parodies/interpretations of the original songs. You may use it for private study, scholarship, research or language learning purposes only