Home » I » Insane Clown Posse »

Insane Clown Posse - Miracles Tabs

Artists:  A B C D E F G H I J K L M N O P Q R S T U V W X Y Z # 

Miracles Tabs

(ver. 1) Click to play this song!
Insane Clown Posse
This is the solo during the end of the song

   Do this a number of times
e|---------------------------------------------------------------------------|
B|-9b10r-7-9-7--------6-----8---6-----8--------------------------------------|
G|-------------8-6----6-----8---6-----8--------------------------------------|
D|------------------8----8---------8-----------------------------------------|
A|---------------------------------------------------------------------------|
E|---------------------------------------------------------------------------|

   This is the second part do it a number of times two,then go back to part one.
e|---------------------------------------------------------------------------|
B|----------6----------------------------------------------------------------|
G|----------6-------------6--------------------------------------------------|
D|----6-8-6-6-------6-8-6-6--------------------------------------------------|
A|---------------------------------------------------------------------------|
E|---------------------------------------------------------------------------|


Whoop Whoop! This is an awesome song of an an awesome album, so i thought i'd tab since 
one else would. MCL
            
Submit corrections

↑ Back to top | Tablatures and chords for acoustic guitar and electric guitar, ukulele, drums are parodies/interpretations of the original songs. You may use it for private study, scholarship, research or language learning purposes only