» » »

Inquisition - Inversion Of Ethereal White Stars Tabs

Artists:  A B C D E F G H I J K L M N O P Q R S T U V W X Y Z # 

Inversion Of Ethereal White Stars Tabs

(ver. 1) Click to play this song!
Inquisition
 Rating:
4/5 (4 votes)

 Inversion Of Ethereal White Stars lessons Tabs too difficult? Try these video lessons and learn fast
 
                Inquisition - Inversion of Ethereal White Stars

7 string A standard, if you've not got a seven string then it's only one riff that you 
can't hit & it'd be pretty easy to work it out for drop C.

Intro riff open
d|----------------------------------------------------------------|
A|----------------------------------------------------------------|
F|--------0-----------0-----------------------0-------0-----------|
C|----2-------2-----------2---------------0---------------0-------|
G|2---------------3-----------3-------0-----------------------0---|
D|0-------------------------------3---------------2---------------|
A|----------------------------------------------------------------|
 |x               x               x               x               |


Intro riff muted - pretty much the same just sounds better muted this way
Guitar 1
d|----------------------------------------------------------------|
A|----------------------------------------------------------------|
F|----------------------------------------------------------------|
C|----2---5---2-------5---2-------------------5-------5---0-------|
G|----------------3-----------3-----------5-------------------0---|
D|0-------------------------------3---5-----------2---------------|
A|----------------------------------------------------------------|
 |x               x               x               x               |

Guitar 2 - trem picked
d|----------------22--------------------------------------(hammer)|
A|--------20--------------20------19------20------22------19201920|
F|21--------------------------------------------------------------|
C|----------------------------------------------------------------|
G|----------------------------------------------------------------|
D|----------------------------------------------------------------|
A|----------------------------------------------------------------|
 |x               x               x               x               |

Guitar 1
d|----------------------------------------------------------------|
A|----------------------------------------------------------------|
F|----------------------------------------------------------------|
C|----2---5---2-------5---2-------------------5-------5-----------|
G|----------------3-----------3-----------5-----------------------|
D|0-------------------------------3---5-----------2-------2h3p2h3-|
A|----------------------------------------------------------------|
 |x       x       x       x       x       x       x       x       |

Guitar 2 - trem picked
d|----------------22----------------------19------20------(hammer)|
A|--------20--------------20------22----------------------19201920|
F|21--------------------------------------------------------------|
C|----------------------------------------------------------------| x2
G|----------------------------------------------------------------|
D|----------------------------------------------------------------|
A|----------------------------------------------------------------|
 |x               x               x               x               |

Before breakdown guitar 1 removes palm mute/goes to open version for final F & E chords


Breakdown riff - 6/4 time or sutin? Think so
Guitar 1
d|------------------------------------------------|
A|------------------------------------------------|
F|------------------------------------------------|
C|--------------------------------4------/5-------|
G|---------------/7---------------5------/7-------|
D|0-----------0-----------0-----------------------|
A|------------------------------------------------|
 |x               x               x               |

d|------------------------------------------------|
A|------------------------------------------------|
F|---------------------------------------/9-------|
C|--------------------------------4------/9-------|
G|---------------/7---------------5------/7-------|
D|0-----------0-----------0-----------------------|
A|------------------------------------------------|
 |x               x               x               |

d|------------------------------------------------|
A|------------------------------------------------|
F|------------------------------------------------|
C|--------------------------------4------/5-------|
G|---------------/7---------------5------/7-------|
D|0-----------0-----------0-----------------------|
A|------------------------------------------------|
 |x               x               x               |

                                    Pinch harmonic
d|----------------3----------------------(3)------|
A|------------3-------3---------------------------|
F|------------------------------------------------|
C|0-----------------------------------------------|
G|2-----------------------5-------4---------------|
D|3-----------------------3-------2---------------|
A|------------------------------------------------|
 |x               x               x               |

Guitar 2
d|12----------------------------------------------|trem pick this until
A|------------------------------------------------|you get to the measure
F|------------------------------------------------|with the F chord and
C|------------------------------------------------|then slide down the
G|------------------------------------------------|d-string
D|------------------------------------------------|
A|------------------------------------------------|
 |x               x               x               |

Main riff
d|----------------------------------------------------------------|
A|----------------------------------------------------------------|
F|--------0-----------0-----------------------0-------0-----------|
C|----2-------2-----------2---------------0---------------2-------|
G|2---------------3-----------3-------0-----------3-----------3---|
D|0-------------------------------3-------------------------------|
A|----------------------------------------------------------------|
 |x               x               x               x               |

d|----------------------------------------------------------------|
A|----------------------------------------------------------------|
F|--------0-----------0-----------------------0-------------------|
C|----2-------2-----------2---------------0---------------0-------|
G|2---------------3-----------3-------0---------------0-----------|
D|0-------------------------------3---------------3-----------2---|
A|----------------------------------------------------------------|
 |x               x               x               x               |

Mega riff
d|----------------------------------------------------------------|
A|----------------------------------------------------------------|
F|----------------------------------------------------------------|
C|----------------------------------------------------------------|
G|7-------105-5---7-----105-------7-------105-5-------------------|
D|7-------105-5---7-----105-------7-------105-5---5bu-3-----------|
A|5-------8\3-3---5-----8-3-------5-------8\3-3-----------5-------|
 |x       x       x       x       x       x       x       x       |

On the third and fourth goes through this riff there's a second guitar that plays the 
same notes but two octaves up, cba tabbing it.

Intro open x 4
Intro mute x 2
Breakdown x 2
Intro open x 4
Intro mute x 2
Breakdown x 2
Main riff x 4
Mega riff x 4
Intro open x4
Intro mute x 2
Breakdown x 2
Mega riff x 4
Main riff x 8 (solo)
Finish on D5 chord
            
Submit corrections


        Inversion Of Ethereal White Stars lessons Hard to play? Try these video lessons and learn fast Inversion Of Ethereal White Stars lessons
        
↑ Back to top | Tablatures and chords for acoustic guitar and electric guitar, ukulele, drums are parodies/interpretations of the original songs. You may use it for private study, scholarship, research or language learning purposes only