Home » I » Inner Circle »

Inner Circle - Sweat Bass

Artists:  A B C D E F G H I J K L M N O P Q R S T U V W X Y Z # 

Sweat Bass

(ver. 1) Click to play this song!
Inner Circle
My band wanted to cover this so I had a pop at the bass myself. Easy to get to grips 
with and sounds good to me! please rate this tab!


Main Riff (plays for almost all of the song)

G|-----------------------------|
D|---555-----777---------------|
A|-3--------------5-555-------5|
E|---------5-------------5-5-7-|

Breakdown

G|-----------------------------|
D|-----------------------------|
A|-3-3-3----------5-5-5-------5|
E|---------5-5-5---------5-5-7-|

G|-----------------------------|
D|-----------------------------|
A|-3--------------5-----------5|
E|---------5-------------5-5-7-|
            
Submit corrections

↑ Back to top | Tablatures and chords for acoustic guitar and electric guitar, ukulele, drums are parodies/interpretations of the original songs. You may use it for private study, scholarship, research or language learning purposes only