Home » I » Inner Circle »

Inner Circle - Rock With You Bass

Artists:  A B C D E F G H I J K L M N O P Q R S T U V W X Y Z # 

Rock With You Bass

(ver. 1) Click to play this song!
Inner Circle
intro: let chorus notes ring out 2 times

verse (4x):

  d#		g#

g--------------------------------------|
d--------64-6---6666--4-6-6------------|
a-6----4---6-6-------6-----------------|
e---46---------------------------------|

g--------------------------------------|
d----------------------6-66------------|
a-6----4-64-46-------6-----------------|
e---46-----6----4444-------------------|

chorus (4x):

  c#       g#         f#    g#   Bbm

g------------------------------------------------|
d------------------------------------------------|
a--4--46--------------------------------------02-|..
e-------46-4-4-------02-24-2224--6-6-------------|

This is it...fairly easy, lots of improvisation though

Have fun!
            
Submit corrections

↑ Back to top | Tablatures and chords for acoustic guitar and electric guitar, ukulele, drums are parodies/interpretations of the original songs. You may use it for private study, scholarship, research or language learning purposes only