» » »

Injected - Only Hurts Awhile Tabs

Artists:  A B C D E F G H I J K L M N O P Q R S T U V W X Y Z # 

Only Hurts Awhile Tabs

(ver. 1) Click to play this song!
Injected
 Rating:
4.3/5 (9 votes)

 Only Hurts Awhile  lessons Tabs too difficult? Try these video lessons and learn fast
 
                [Intro]

 G1    
E|--------------------------------|------------0-------------------|
B|------3-------------------------|------3-------------------------|
G|----6---------------------------|----6---------------------------|
D|--4-----------------------------|--4-----------------------------|
A|5-------------------------------|5-------------------------------|
D|--------------------------------|--------------------------------|

E|--------------------------------|--------------------------------|
B|------3-------------------------|------0-------------------------|
G|----5---------------------------|----5---------------------------|
D|--5-----------------------------|--5-----------------------------|
A|3-------------------------------|3-------------------------------|
D|--------------------------------|--------------------------------|


[Verse]
   
E|--------------------------------|------------0-------------------|
B|------3-------------------------|------3-------------------------|
G|----6---------------------------|----6---------------------------|
D|--4-----------------------------|--4-----------------------------|
A|5-------------------------------|5-------------------------------|
D|--------------------------------|--------------------------------|

E|--------------------------------|--------------------------------|
B|------3-------------------------|------0-------------------------|
G|----5---------------------------|----5---------------------------|
D|--5-----------------------------|--5-----------------------------|
A|3-------------------------------|3-------------------------------|
D|--------------------------------|--------------------------------|

E|--------------------------------|--------------0-----------------|
B|--------3---------------3-----3-|--------3-------------3---------|
G|----6-----6---------6-----6-----|----6-----6-------6-------6-----|
D|--4---4-----------4---4---------|--4---4-------------4-----------|
A|5-------------5-----------------|5-------------------------------|
D|--------------------------------|--------------------------------|

E|--------------------------------|--------------------------------|
B|--------3-------------3---------|--------0-------------0---------|
G|----5-----5---------5---5-------|----5-----5---------5---5-------|
D|--5---5-----------5-------------|--5---5-----------5-------------|
A|3-------------3-----------------|3-------------3-----------------|
D|--------------------------------|--------------------------------|


[Pre-Chorus]

  G2
E|--------------------------------|--------------------------------|
B|--------------------------------|--------------------------------|
G|4-4-4-4-4-4-4-4-4-4-4-4-4-4-4-4-|--------------------------------|
D|4-4-4-4-4-4-4-4-4-4-4-4-4-4-4-4-|5-5-5-5-5-5-5-5-5-5-5-5-5-5-5-5-|
A|2-2-2-2-2-2-2-2-2-2-2-2-2-2-2-2-|5-5-5-5-5-5-5-5-5-5-5-5-5-5-5-5-|
D|--------------------------------|5-5-5-5-5-5-5-5-5-5-5-5-5-5-5-5-|
 |PM                               PM
 |G1
E|--------------------------------|--------------------------------|
B|--------------------------------|--------------------------------|
G|4-4-4-4-4-4-4-4-4-4-4-4-4-4-4-4-|--------------------------------|
D|4-4-4-4-4-4-4-4-4-4-4-4-4-4-4-4-|5-5-5-5-5-5-5-5-5-5-5-5-5-5-5-5-|
A|2-2-2-2-2-2-2-2-2-2-2-2-2-2-2-2-|5-5-5-5-5-5-5-5-5-5-5-5-5-5-5-5-|
D|--------------------------------|5-5-5-5-5-5-5-5-5-5-5-5-5-5-5-5-|
  PM 

E|--------------------------------|--------------------------------|
B|--------------------------------|--------------------------------|
G|--------------------------------|------5-5-5-------5-5-5---------|
D|3-3-3-3-3-3-3-3-3-3-3-3-3-3-3-3-|5-5-5-5-5-5-2-2-2-5-5-5-5-5-5-7-|
A|3-3-3-3-3-3-3-3-3-3-3-3-3-3-3-3-|5-5-5-3-3-3-2-2-2-3-3-3-5-5-5-7-|
D|3-3-3-3-3-3-3-3-3-3-3-3-3-3-3-3-|5-5-5-------2-2-2-------5-5-5-7-|
 |PM                               PM
E|--------------------------------|--------------------------------|
B|--------------------------------|--------------------------------|
G|--------------------------------|------5-5-5-------5-5-5---------|
D|3-3-3-3-3-3-3-3-3-3-3-3-3-3-3-3-|5-5-5-5-5-5-2-2-2-5-5-5-5-5-5-7-|
A|3-3-3-3-3-3-3-3-3-3-3-3-3-3-3-3-|5-5-5-3-3-3-2-2-2-3-3-3-5-5-5-7-|
D|3-3-3-3-3-3-3-3-3-3-3-3-3-3-3-3-|5-5-5-------2-2-2-------5-5-5-7-|
  PM                               PM


[Chorus]

E|11------------------------------|12------------------------------|
B|--------------------------------|--------------------------------|
G|8-------------------------------|9-------------------------------|
D|--------------------------------|--------------------------------|
A|--------------------------------|--------------------------------|
D|--------------------------------|--------------------------------|
 |                                                                  X3
E|--------------------------------|--------------------------------|
B|--------------------------------|--------------------------------|
G|--------------------------------|--------------------------------|
D|9-9-9-9-9-9-9-9-9-9-9-9-9-9-9-9-|5-5-5-5-5-5-5-5-5-5-5-5-5-5-5-7-|
A|9-9-9-9-9-9-9-9-9-9-9-9-9-9-9-9-|5-5-5-5-5-5-5-5-5-5-5-5-5-5-5-7-|
D|9-9-9-9-9-9-9-9-9-9-9-9-9-9-9-9-|5-5-5-5-5-5-5-5-5-5-5-5-5-5-5-7-|


E|11------------------------------|12------------------------------|
B|--------------------------------|--------------------------------|
G|8-------------------------------|9-------------------------------|
D|--------------------------------|--------------------------------|
A|--------------------------------|--------------------------------|
D|--------------------------------|--------------------------------|
 |
E|--------------------------------|--------------------------------|
B|--------------------------------|--------------------------------|
G|--------------------------------|--------------------------------|
D|9-9-9-9-9-9-9-9-9-9-9-9-9-9-9-9-|5-5-5-5-5-5-5-5-5-5-5-5-5-5-5-5-|
A|9-9-9-9-9-9-9-9-9-9-9-9-9-9-9-9-|5-5-5-5-5-5-5-5-5-5-5-5-5-5-5-5-|
D|9-9-9-9-9-9-9-9-9-9-9-9-9-9-9-9-|5-5-5-5-5-5-5-5-5-5-5-5-5-5-5-5-|


E|--------------------------------|--------------------------------|
B|--------------------------------|--------------------------------|
G|--------------------------------|4-------------------------------|
D|0---0---0---0---0---0---0---0---|4-------------------------------|
A|0---0---0---0---0---0---0---0---|2-------------------------------|
D|0---0---0---0---0---0---0---0---|--------------------------------|
 |
E|--------------------------------|--------------------------------|
B|--------------------------------|--------------------------------|
G|--------------------------------|4-------------------------------|
D|0---0---0---0---0---0---0---0---|4-------------------------------|
A|0---0---0---0---0---0---0---0---|2-------------------------------|
D|0---0---0---0---0---0---0---0---|--------------------------------|


[Verse]

E|--------------------------------|------------0-------------------|
B|------3-------------------------|------3-------------------------|
G|----6---------------------------|----6---------------------------|
D|--4-----------------------------|--4-----------------------------|
A|5-------------------------------|5-------------------------------|
D|--------------------------------|--------------------------------|

E|--------------------------------|--------------------------------|
B|------3-------------------------|------0-------------------------|
G|----5---------------------------|----5---------------------------|
D|--5-----------------------------|--5-----------------------------|
A|3-------------------------------|3-------------------------------|
D|--------------------------------|--------------------------------|

E|--------------------------------|--------------0-----------------|
B|--------3---------------3-----3-|--------3-------------3---------|
G|----6-----6---------6-----6-----|----6-----6-------6-------6-----|
D|--4---4-----------4---4---------|--4---4-------------4-----------|
A|5-------------5-----------------|5-------------------------------|
D|--------------------------------|--------------------------------|

E|--------------------------------|--------------------------------|
B|--------3-------------3---------|--------0-------------0---------|
G|----5-----5---------5---5-------|----5-----5---------5---5-------|
D|--5---5-----------5-------------|--5---5-----------5-------------|
A|3-------------3-----------------|3-------------3-----------------|
D|--------------------------------|--------------------------------|


[Pre-Chorus]

  G2
E|--------------------------------|--------------------------------|
B|--------------------------------|--------------------------------|
G|4-4-4-4-4-4-4-4-4-4-4-4-4-4-4-4-|--------------------------------|
D|4-4-4-4-4-4-4-4-4-4-4-4-4-4-4-4-|5-5-5-5-5-5-5-5-5-5-5-5-5-5-5-5-|
A|2-2-2-2-2-2-2-2-2-2-2-2-2-2-2-2-|5-5-5-5-5-5-5-5-5-5-5-5-5-5-5-5-|
D|--------------------------------|5-5-5-5-5-5-5-5-5-5-5-5-5-5-5-5-|
 |PM                               PM
 |G1
E|--------------------------------|--------------------------------|
B|--------------------------------|--------------------------------|
G|4-4-4-4-4-4-4-4-4-4-4-4-4-4-4-4-|--------------------------------|
D|4-4-4-4-4-4-4-4-4-4-4-4-4-4-4-4-|5-5-5-5-5-5-5-5-5-5-5-5-5-5-5-5-|
A|2-2-2-2-2-2-2-2-2-2-2-2-2-2-2-2-|5-5-5-5-5-5-5-5-5-5-5-5-5-5-5-5-|
D|--------------------------------|5-5-5-5-5-5-5-5-5-5-5-5-5-5-5-5-|
  PM 

E|--------------------------------|--------------------------------|
B|--------------------------------|--------------------------------|
G|--------------------------------|------5-5-5-------5-5-5---------|
D|3-3-3-3-3-3-3-3-3-3-3-3-3-3-3-3-|5-5-5-5-5-5-2-2-2-5-5-5-5-5-5-7-|
A|3-3-3-3-3-3-3-3-3-3-3-3-3-3-3-3-|5-5-5-3-3-3-2-2-2-3-3-3-5-5-5-7-|
D|3-3-3-3-3-3-3-3-3-3-3-3-3-3-3-3-|5-5-5-------2-2-2-------5-5-5-7-|
 |PM                               PM
E|--------------------------------|--------------------------------|
B|--------------------------------|--------------------------------|
G|--------------------------------|------5-5-5-------5-5-5---------|
D|3-3-3-3-3-3-3-3-3-3-3-3-3-3-3-3-|5-5-5-5-5-5-2-2-2-5-5-5-5-5-5-7-|
A|3-3-3-3-3-3-3-3-3-3-3-3-3-3-3-3-|5-5-5-3-3-3-2-2-2-3-3-3-5-5-5-7-|
D|3-3-3-3-3-3-3-3-3-3-3-3-3-3-3-3-|5-5-5-------2-2-2-------5-5-5-7-|
  PM                               PM


[Chorus]

E|11------------------------------|12------------------------------|
B|--------------------------------|--------------------------------|
G|8-------------------------------|9-------------------------------|
D|--------------------------------|--------------------------------|
A|--------------------------------|--------------------------------|
D|--------------------------------|--------------------------------|
 |                                                                  X3
E|--------------------------------|--------------------------------|
B|--------------------------------|--------------------------------|
G|--------------------------------|--------------------------------|
D|9-9-9-9-9-9-9-9-9-9-9-9-9-9-9-9-|5-5-5-5-5-5-5-5-5-5-5-5-5-5-5-7-|
A|9-9-9-9-9-9-9-9-9-9-9-9-9-9-9-9-|5-5-5-5-5-5-5-5-5-5-5-5-5-5-5-7-|
D|9-9-9-9-9-9-9-9-9-9-9-9-9-9-9-9-|5-5-5-5-5-5-5-5-5-5-5-5-5-5-5-7-|


E|11------------------------------|12------------------------------|
B|--------------------------------|--------------------------------|
G|8-------------------------------|9-------------------------------|
D|--------------------------------|--------------------------------|
A|--------------------------------|--------------------------------|
D|--------------------------------|--------------------------------|
 |
E|--------------------------------|--------------------------------|
B|--------------------------------|--------------------------------|
G|--------------------------------|--------------------------------|
D|9-9-9-9-9-9-9-9-9-9-9-9-9-9-9-9-|5-5-5-5-5-5-5-5-5-5-5-5-5-5-5-5-|
A|9-9-9-9-9-9-9-9-9-9-9-9-9-9-9-9-|5-5-5-5-5-5-5-5-5-5-5-5-5-5-5-5-|
D|9-9-9-9-9-9-9-9-9-9-9-9-9-9-9-9-|5-5-5-5-5-5-5-5-5-5-5-5-5-5-5-5-|


[Bridge]

E|--------------------------------|--------------------------------|
B|--------------------------------|3---3---3---3---3---3---3---3---|
G|--------------------------------|--6---6---6---6---6---6---6---6-|
D|0---0---0---0---0---0---0---0---|--------------------------------|
A|0---0---0---0---0---0---0---0---|--------------------------------|
D|0---0---0---0---0---0---0---0---|--------------------------------|
 |                                                                  X2
E|--------------------------------|0-0-0-0-0---0-0---0-0---0-0-0---|
B|--------------------------------|2-2-2-2-2---2-2---2-2---2-2-2---|
G|--------------------------------|2-2-2-2-2---2-2---2-2---2-2-2---|
D|0---0---0---0---0---0---0---0---|0-0-0-0-0---0-0---0-0---0-0-0---|
A|0---0---0---0---0---0---0---0---|2-2-2-2-2---2-2---2-2---2-2-2---|
D|0---0---0---0---0---0---0---0---|--------------------------------|

  G2
E|--------------------------------|--------------------------------|
B|--------------------------------|--------------------------------|
G|--------------------------------|--------------------------------|
D|5-------------------------------|0-------------------------------|
A|5-------------------------------|0-------------------------------|
D|5-------------------------------|0-------------------------------|
 |G1
E|--------------------------------|--------------------------------|
B|--------------------------------|--------------------------------|
G|6-------------------------------|6-------------------------------|
D|7-------------------------------|4-------------------------------|
A|5-------------------------------|5-------------------------------|
D|--------------------------------|--------------------------------|


  G2
E|--------------------------------|--------------------------------|
B|--------------------------------|--------------------------------|
G|--------------------------------|--------------------------------|
D|3-------------------------------|5-------------------------------|
A|3-------------------------------|3-------------------------------|
D|3-------------------------------|5-------------------------------|
 |G1
E|--------------------------------|--------------------------------|
B|0-------------------------------|--------------------------------|
G|5-------------------------------|4-------------------------------|
D|5-------------------------------|5-------------------------------|
A|3-------------------------------|3-------------------------------|
D|--------------------------------|--------------------------------|
 |G3 (Overdub)
E|--------------------------------|--------------------------------|
B|--------------------------------|--------------------------------|
G|4~------------------------------|--------------pb6r4~------------|
D|--------------------------------|--------------------------------|
A|--------------------------------|--------------------------------|
D|--------------------------------|--------------------------------|


[Solo]

E|--------------------------------|--------------------------------|
B|--------------------------------|--------------------------------|
G|6---6---6---4---6~----4--/9---7-|6---6---6---4-----6~------------|
D|--------------------------------|--------------------------------|
A|--------------------------------|--------------------------------|
D|--------------------------------|--------------------------------|
 |
E|--------------------------------|--------------------------------|
B|--------------------------------|--------------------------------|
G|--------------------------------|--------------------------------|
D|5-------------------------------|0-------------------------------|
A|5-------------------------------|0-------------------------------|
D|5-------------------------------|0-------------------------------|


E|--------------------------------|--------------------------------|
B|--------------------------------|--------------------------------|
G|4~----5-----7~----5~----4---5---|4~----5-----7~----5~----4---5---|
D|--------------------------------|--------------------------------|
A|--------------------------------|--------------------------------|
D|--------------------------------|--------------------------------|
 |
E|--------------------------------|--------------------------------|
B|--------------------------------|--------------------------------|
G|--------------------------------|--------------------------------|
D|3-------------------------------|5-------------------------------|
A|3-------------------------------|3-------------------------------|
D|3-------------------------------|5-------------------------------|


[Pre-Chorus]

  G2
E|--------------------------------|--------------------------------|
B|--------------------------------|--------------------------------|
G|4-4-4-4-4-4-4-4-4-4-4-4-4-4-4-4-|--------------------------------|
D|4-4-4-4-4-4-4-4-4-4-4-4-4-4-4-4-|5-5-5-5-5-5-5-5-5-5-5-5-5-5-5-5-|
A|2-2-2-2-2-2-2-2-2-2-2-2-2-2-2-2-|5-5-5-5-5-5-5-5-5-5-5-5-5-5-5-5-|
D|--------------------------------|5-5-5-5-5-5-5-5-5-5-5-5-5-5-5-5-|
 |PM                               PM
 |G1
E|--------------------------------|--------------------------------|
B|--------------------------------|--------------------------------|
G|4-4-4-4-4-4-4-4-4-4-4-4-4-4-4-4-|--------------------------------|
D|4-4-4-4-4-4-4-4-4-4-4-4-4-4-4-4-|5-5-5-5-5-5-5-5-5-5-5-5-5-5-5-5-|
A|2-2-2-2-2-2-2-2-2-2-2-2-2-2-2-2-|5-5-5-5-5-5-5-5-5-5-5-5-5-5-5-5-|
D|--------------------------------|5-5-5-5-5-5-5-5-5-5-5-5-5-5-5-5-|
  PM 

E|--------------------------------|--------------------------------|
B|--------------------------------|--------------------------------|
G|--------------------------------|------5-5-5-------5-5-5---------|
D|3-3-3-3-3-3-3-3-3-3-3-3-3-3-3-3-|5-5-5-5-5-5-2-2-2-5-5-5-5-5-5-7-|
A|3-3-3-3-3-3-3-3-3-3-3-3-3-3-3-3-|5-5-5-3-3-3-2-2-2-3-3-3-5-5-5-7-|
D|3-3-3-3-3-3-3-3-3-3-3-3-3-3-3-3-|5-5-5-------2-2-2-------5-5-5-7-|
 |PM                               PM
E|--------------------------------|--------------------------------|
B|--------------------------------|--------------------------------|
G|--------------------------------|------5-5-5-------5-5-5---------|
D|3-3-3-3-3-3-3-3-3-3-3-3-3-3-3-3-|5-5-5-5-5-5-2-2-2-5-5-5-5-5-5-7-|
A|3-3-3-3-3-3-3-3-3-3-3-3-3-3-3-3-|5-5-5-3-3-3-2-2-2-3-3-3-5-5-5-7-|
D|3-3-3-3-3-3-3-3-3-3-3-3-3-3-3-3-|5-5-5-------2-2-2-------5-5-5-7-|
  PM                               PM


[Chorus]

E|11------------------------------|12------------------------------|
B|--------------------------------|--------------------------------|
G|8-------------------------------|9-------------------------------|
D|--------------------------------|--------------------------------|
A|--------------------------------|--------------------------------|
D|--------------------------------|--------------------------------|
 |                                                                  X3
E|--------------------------------|--------------------------------|
B|--------------------------------|--------------------------------|
G|--------------------------------|--------------------------------|
D|9-9-9-9-9-9-9-9-9-9-9-9-9-9-9-9-|5-5-5-5-5-5-5-5-5-5-5-5-5-5-5-7-|
A|9-9-9-9-9-9-9-9-9-9-9-9-9-9-9-9-|5-5-5-5-5-5-5-5-5-5-5-5-5-5-5-7-|
D|9-9-9-9-9-9-9-9-9-9-9-9-9-9-9-9-|5-5-5-5-5-5-5-5-5-5-5-5-5-5-5-7-|


E|11------------------------------|12------------------------------|
B|--------------------------------|--------------------------------|
G|8-------------------------------|9-------------------------------|
D|--------------------------------|--------------------------------|
A|--------------------------------|--------------------------------|
D|--------------------------------|--------------------------------|
 |
E|--------------------------------|--------------------------------|
B|--------------------------------|--------------------------------|
G|--------------------------------|--------------------------------|
D|9-9-9-9-9-9-9-9-9-9-9-9-9-9-9-9-|5-5-5-5-5-5-5-5-5-5-5-5-5-5-5-5-|
A|9-9-9-9-9-9-9-9-9-9-9-9-9-9-9-9-|5-5-5-5-5-5-5-5-5-5-5-5-5-5-5-5-|
D|9-9-9-9-9-9-9-9-9-9-9-9-9-9-9-9-|5-5-5-5-5-5-5-5-5-5-5-5-5-5-5-5-|



E|--------------------------------|--------------------------------|
B|--------------------------------|3---3---3---3---3---3---3---3---|
G|--------------------------------|--6---6---6---6---6---6---6---6-|
D|0---0---0---0---0---0---0---0---|--------------------------------|
A|0---0---0---0---0---0---0---0---|--------------------------------|
D|0---0---0---0---0---0---0---0---|--------------------------------|
 |                                                                  X2
E|--------------------------------|0-0-0-0-0---0-0---0-0---0-0-0---|
B|--------------------------------|2-2-2-2-2---2-2---2-2---2-2-2---|
G|--------------------------------|2-2-2-2-2---2-2---2-2---2-2-2---|
D|0---0---0---0---0---0---0---0---|0-0-0-0-0---0-0---0-0---0-0-0---|
A|0---0---0---0---0---0---0---0---|2-2-2-2-2---2-2---2-2---2-2-2---|
D|0---0---0---0---0---0---0---0---|--------------------------------|
                                                                   X2
E|--------------------------------|--------9-------10------9-------|
B|--------------------------------|8---8-------8-------8-------8---|
G|--------------------------------|--11--11--11--11--11--11--11--11|
D|0---0---0---0---0---0---0---0---|--------------------------------|
A|0---0---0---0---0---0---0---0---|--------------------------------|
D|0---0---0---0---0---0---0---0---|--------------------------------|
 |                                                                  
E|--------------------------------|0-0-0-0-0---0-0---0-0---0-0-0---|
B|--------------------------------|2-2-2-2-2---2-2---2-2---2-2-2---|
G|--------------------------------|2-2-2-2-2---2-2---2-2---2-2-2---|
D|0---0---0---0---0---0---0---0---|0-0-0-0-0---0-0---0-0---0-0-0---|
A|0---0---0---0---0---0---0---0---|2-2-2-2-2---2-2---2-2---2-2-2---|
D|0---0---0---0---0---0---0---0---|--------------------------------|


[Outro]

 G2 with E-Bow 
E|--------------------------------|--------------------------------|
B|--------------------------------|--------------------------------|
G|2------------------------------/|6-------------------------------|
D|--------------------------------|--------------------------------|
A|--------------------------------|--------------------------------|
D|--------------------------------|--------------------------------|
 |G1                                                                X8
E|--------------------------------|--------------------------------|
B|----0-----0---------0-----0-----|----0-----0---------0-----0-----|
G|--2-----2-----2---2-----2-----2-|--6-----6---------6-----6-----6-|
D|0-----0-----0---0-----0-----0---|4-----4-----4---4-----4-----4---|
A|--------------------------------|--------------------------------|
D|--------------------------------|--------------------------------|


[Live Outro]

  G2
E|--------------------------------|--------------------------------|
B|--------------------------------|--------------------------------|
G|--------------------------------|--------------------------------|
D|9-9-9-9-9-9-9-9-9-9-9-9-9-9-9-9-|5-5-5-5-5-5-5-5-5-5-5-5-5-5-5-7-|
A|9-9-9-9-9-9-9-9-9-9-9-9-9-9-9-9-|5-5-5-5-5-5-5-5-5-5-5-5-5-5-5-7-|
D|9-9-9-9-9-9-9-9-9-9-9-9-9-9-9-9-|5-5-5-5-5-5-5-5-5-5-5-5-5-5-5-7-|
 |G1                                                                X16
E|--------------------------------|--------------------------------|
B|------------------------0-------|------------------------0-------|
G|--------8---------9-------------|--------6---------7-------------|
D|--7---7-------7-----------------|--4---4-------4-----------------|
A|--------------------------------|--------------------------------|
D|9---9-------9---9---------------|5---5-------5---5---------------|
            
Submit corrections


        Only Hurts Awhile  lessons Hard to play? Try these video lessons and learn fast Only Hurts Awhile  lessons
        
↑ Back to top | Tablatures and chords for acoustic guitar and electric guitar, ukulele, drums are parodies/interpretations of the original songs. You may use it for private study, scholarship, research or language learning purposes only