» » »

Inhale Exhale - Lost The Sick The Sacred Tabs

Artists:  A B C D E F G H I J K L M N O P Q R S T U V W X Y Z # 

Lost The Sick The Sacred Tabs

(ver. 3) Click to play this song!
Inhale Exhale
 Rating:
4/5 (5 votes)


 Lost The Sick The Sacred lessons Tabs too difficult? Try these video lessons and learn fast
 
                D|---|---------------------------------------2---5-3-2h3p2-|
A|-3-|-----3---3--3-/--5---65----3---3--3------------------|
F|---|-----------------------0-----------------------------|
C|---|-------------------------------------2---2-----------| X2
G|-3-|---3---3---3--/5---5-----3---3---3-------------------|
C|---|-----------------------------------------------------|

D|-------------------------------------2---(5)-|
A|---3---3--3-/--5---65----3---3--3------------|
F|---------------------0-----------------------|   /= slide up to 5th fret
C|-----------------------------------2---2-----|      but dont play it yet
G|-3---3---3--/5---5-----3---3---3-------------|
C|---------------------------------------------|
____________________________________________________________________________

D|-------------*333-|
A|-------------*333-|
F|-------------*333-|    * they strum the open strings with a natural
C|-8-8--8-x-0-0-000-| X2   harmonic somewhere in between the 2nd and 
G|-8-8--8-x-0-0-000-|      3rd fret
C|-8-8--8-x-0-0-000-|

D|--------------------|
A|--------------------|
F|-0h2p0--------------|  1st ending
C|------2p0-0h2p0-----|
G|---------0-----1p0--|
C|------------------0-|

D|---|
A|---|
F|-5-|  this is the chord played. I don't feel like finding out the 
C|-5-|  strumming. Do it yourself.
G|-3-|
C|---|
____________________________________________________________________________

D|---------------|
A|--11-13--10-11-|
F|--10-12--9--10-|   Once again i dont wanna do the strumming.
C|--8--10--7--8--|
G|-(8)(10)(7)(8)-|
C|---------------|

/=slide
h=hammer-on
p=pull-off
()=silently played
x=muted strum
            
Submit corrections



        Lost The Sick The Sacred lessons Hard to play? Try these video lessons and learn fast Lost The Sick The Sacred lessons
        
↑ Back to top | Tablatures and chords for acoustic guitar and electric guitar, ukulele, drums are parodies/interpretations of the original songs. You may use it for private study, scholarship, research or language learning purposes only