» » »

Inhale Exhale - Lost The Sick The Sacred Tabs

Artists:  A B C D E F G H I J K L M N O P Q R S T U V W X Y Z # 

Lost The Sick The Sacred Tabs

(ver. 1) Click to play this song!
Inhale Exhale
 Rating:
4/5 (4 votes)


 Lost The Sick The Sacred lessons Tabs too difficult? Try these video lessons and learn fast
 
                -----------------------------------------------------------------
Inhale Exhale – The Lost. The Sick. The Sacred.
-----------------------------------------------------------------
Tuning: Drop c

This is my first tab so let me know if there's any mistakes. :)

Intro 
D|---------------------------------------------------------------| 
A|---3---3---3---7---8-7-----3---3---3---7---10-8-7h8p7----------|
F|-----------------------0---------------------------------------|x2 then    
C|-------------0---0-------------------0---0---------------------|go to 
G|-3---3---3---------------3---3---3-----------------------------|next
C|---------------------------------------------------------------|line

D|---------------------------------------------------------------|
A|---3---3---3---7---8-7-----3---3---3---------------------------|
F|-----------------------0---------------------------------------|
C|-------------0---0------------------0~-------------------------|
G|-3---3---3---------------3---3---3-----------------------------|
C|---------------------------------------------------------------|

Verse x2
D|---------------------------------------------------------------|
A|---------------------------------------------------------------|
F|---------------------------------------------------------------|
C|-8-88x0-00-08-88x0-00-08-88x0-00-0-5h7p5-----------------------|
G|-8-88x0-00-08-88x0-00-08-88x0-00-0-------7p5p0-5h7p5-1p0-------|
C|-8-88x0-00-08-88x0-00-08-88x0-00-0-----------------------0-----|

D|---------------------------------------------------------------|
A|---------------------------------------------------------------|
F|---------------------------------------------------------------|
C|-8-88x0-00-08-88x0-00-08-88x0-00-0-10-101010105-5555-----------|
G|-8-88x0-00-08-88x0-00-08-88x0-00-0-10-101010105-5555-----------| 
C|-8-88x0-00-08-88x0-00-08-88x0-00-0-10-101010105-5555-----------|

(Intro)

Chorus 
D|---------------------------------------------------------------|
A|-12----13----10----12-----13----10-----------------------------|
F|--x-x6--x-x6--x-x6--x-x12--x-x6--x-x12-------------------------|
C|--9----10-----7-----9-----10-----7-----------------------------|
G|---------------------------------------------------------------|
C|---------------------------------------------------------------|

D|---------------------------------------------------------------|
A|-12----13----10----12-----13-----------------------------------|
F|--x-x6--x-x6--x-x6--x-x12--x-x6--------------------------------|
C|--9----10-----7-----9-----10-----------------------------------|
G|---------------------------------------------------------------|
C|---------------------------------------------------------------|

(Verse)
(Intro)
(Chorus)

Solo x2
D|-------12-------12---------------------------------------------|
A|-10-13----10-13------------12h13p12h13p12h13-------------------|
F|-------------------12~-----------------------------------------|
C|---------------------------------------------------------------|
G|---------------------------------------------------------------|
C|---------------------------------------------------------------|

D|-------12-------12---------------------------------------------|
A|-10-13----10-13------------15-13-12h13p12----------------------|
F|-------------------12~-----------------------------------------|
C|---------------------------------------------------------------|
G|---------------------------------------------------------------|
C|---------------------------------------------------------------|

D|----13-12----13-12---------------------------------------------|
A|-10-------10---------------12h13p12h13p12h13-------------------|
F|-------------------12~-----------------------------------------|
C|---------------------------------------------------------------|
G|---------------------------------------------------------------|
C|---------------------------------------------------------------|

D|----13-12----13-12---------------------------------------------|
A|-10-------10---------------15-13-12h13p12----------------------|
F|-------------------12~-----------------------------------------|
C|---------------------------------------------------------------|
G|---------------------------------------------------------------|
C|---------------------------------------------------------------|

Bridge x4
D|---------------------------------------------------------------|
A|---------------------------------------------------------------|
F|---------------------------------------------------------------|
C|-10----5----0--------------------------------------------------|
G|-10-x6-5-x6-0-x12----------------------------------------------|
C|-10----5----0--------------------------------------------------|
  
                            OR                                                                   
D|---------------------------------------------------------------|
A|---------------------------------------------------------------|
F|-7----9----11----12----7---------------------------------------|
C|-x-x3-x-x3--x-x3- x-x3-x-x12-----------------------------------|
G|-5----7-----9----10----5---------------------------------------|
C|---------------------------------------------------------------|

(Intro)

Outro x4
D|---------------------------------------------------------------|
A|---------------------------------------------------------------|
F|---------------------------------------------------------------|
C|-10----5----0--------------------------------------------------|
G|-10-x6-5-x6-0-x12----------------------------------------------|
C|-10----5----0--------------------------------------------------|
                         OR
D|---------------------------------------------------------------|
A|---------------------------------------------------------------|
F|-7----9----11----12--------------------------------------------|
C|-x-x3-x-x3--x-x6--x-x12----------------------------------------|
G|-5----7-----9----10--------------------------------------------|
C|---------------------------------------------------------------|
                              
End On           
D|-------|              
A|-------|                    
F|-------|  
C|-5~----|             
G|-5~----|
C|-5~----|

     OR
D|-------|
A|-------|
F|-12~---|
C|--x----|
G|-10~---|
C|-------|
            
Submit corrections



        Lost The Sick The Sacred lessons Hard to play? Try these video lessons and learn fast Lost The Sick The Sacred lessons
        
↑ Back to top | Tablatures and chords for acoustic guitar and electric guitar, ukulele, drums are parodies/interpretations of the original songs. You may use it for private study, scholarship, research or language learning purposes only