Home » I » Ingrid Michaelson »

Ingrid Michaelson - Oh What A Day Tabs

Artists:  A B C D E F G H I J K L M N O P Q R S T U V W X Y Z # 

Oh What A Day Tabs

(ver. 1) Click to play this song!
Ingrid Michaelson
-------------------------------------------------------------------------------
                        "Oh What A Day" - Ingrid Michaelson
-------------------------------------------------------------------------------

Tuning: Standard - Capo 4
Frets relative to capo


 - VERSES -

*Note: In the very first measure of the song, the E string is not played until the very last note
of the measure (placed in parentheses)

e|------0---0------0---0-----0--0--------(0)--|--------------------------0--0------0--0-----|
B|------2---2------1---1-----2--2------2--2---|------2--2------2--2------0--0------0--0-----|
G|------2---2------2---2-----2--2------2--2---|------2--2------2--2------1--1------1--1h2---|
D|---2----------3----------2--------2---------|---2---------3---------2---------2-----------|
A|--------------------------------------------|---------------------------------------------|
E|--------------------------------------------|---------------------------------------------|
  1) Oh what a  da-ay is today,                 Nothing can stand in my way...
  2) Oh what a night is tonight,                I think I'm ready to fight...

  3) Oh what a way that we die,                 Plenty of tears were supplied...


e|-------2--2-------0--0-------0--0-------0--0---|------1--1------0--0------0--0------0--0--|
B|-------3--3-------0--0-------2--2-------2--2---|------1--1------0--0------2--2------2--2--|
G|-------2--2-------1--1-------0--0-------0--0---|------2--2------1--1------2--2------2--2--|
D|---0-----------2----------2----------2---------|---3---------2---------2---------2--------|
A|-----------------------------------------------|------------------------------------------|
E|-----------------------------------------------|------------------------------------------|
  1) Now that you've shipped out from under my skin, I think I'm ready to win.
  2) Now that my broken bones all have been healed,  I think I'm starting to feel.

  3)   My eyes are wrung out and dry as a bone, but  I taste much better alone.


 - CHORUS -

e|-------2--2-------0--0-------0--0-------0--0---|------2--3------0--0------0--0------0--0--|
B|-------3--3-------0--0-------2--2-------2--2---|------3--3------0--0------2--2------2--2--|
G|-------2--2-------1--1-------2--2-------0--0---|------2--2------1--1------2--2------0--0--|
D|---0-----------2----------2----------2---------|---0---------2---------2---------2--------|
A|-----------------------------------------------|------------------------------------------|
E|-----------------------------------------------|------------------------------------------|
     So-        -omething   go-       -od,           So-      -omething  go-----------------|  -od,

e|------1--1------1--1------0--0------2--2---|------2--2-------0--0------0--0------0--0-------|
B|------1--1------0--0------2--2------0--0---|------3--3-------0--0------2--2------2--2-------|
G|------2--2------2--2------2--2------2--2---|------2--2-------1--1------2--2------2--2-------|
D|---3---------0---------2---------1---------|---0----------2---------2---------2-------------|
A|-------------------------------------------|------------------------------------------------|
E|-------------------------------------------|------------------------------------------------|
     Now that you're gone, I can roll on to      some-     -thing     good!


e|------0--0------0--0---|
B|------2--2------2--2---|
G|------2--2------2--2---|
D|---2---------2---------|
A|-----------------------|
E|-----------------------|
  (To transition into the verse, tack this on at the end of the chorus.)


 - BRIDGE -

e|-----0--0-----0--0-----0--0-----0--0--|-----0--0-----0--0-----2--2-----2--2-----2--2-----2--2--|
B|-----3--3-----3--3-----2--2-----2--2--|-----3--3-----3--3-----0--0-----0--0-----0--0-----0--0--|
G|-----3--3-----3--3-----2--2-----2--2--|-----3--3-----3--3-----2--2-----2--2-----2--2-----2--2--|
D|--3--------3--------2--------2--------|--3--------3--------1--------1--------1--------1--------|
A|--------------------------------------|--------------------------------------------------------|
E|--------------------------------------|--------------------------------------------------------|
     Oh you know I   moved   away             from the other side             of the door...now I

e|------0--0------0--0------0--0------0--0----|------2--2----------------0--0------0--0---|
B|------0--0------0--0------0--0------0--0----|------3--3------0--0------2--2------2--2---|
G|------2--2------1--1------1--1------1--1----|------2--2------1--1------2--2------0--0---|
D|---2---------2---------2---------2----------|---0---------2---------2---------2---------|
A|--------------------------------------------|-------------------------------------------|
E|--------------------------------------------|-------------------------------------------|
   don't have to wait anymore for you to come         home


 - FINAL CHORUS -

e|-------2--2-------0--0-------0--0-------0--0---|------2--3------0--0------0--0------0--0--|
B|-------3--3-------0--0-------2--2-------2--2---|------3--3------0--0------2--2------2--2--|
G|-------2--2-------1--1-------2--2-------0--0---|------2--2------1--1------2--2------0--0--|
D|---0-----------2----------2----------2---------|---0---------2---------2---------2--------|
A|-----------------------------------------------|------------------------------------------|
E|-----------------------------------------------|------------------------------------------|
     So-        -omething   go-       -od,           So-      -omething  go-----------------|  -od,

e|------1--1------1--1------0--0------2--2---|------2--2-------0--0------2--2------2--2-------|
B|------1--1------0--0------2--2------0--0---|------3--3-------0--0------0--0------0--0-------|
G|------2--2------2--2------2--2------2--2---|------2--2-------1--1------2--2------2--2-------|
D|---3---------0---------2---------1---------|---0----------2---------1---------1-------------|
A|-------------------------------------------|------------------------------------------------|
E|-------------------------------------------|------------------------------------------------|
     Now that you're gone, I can roll on to      some-     -thing     go-   -od!



e|------3--2------0--0------0--0------0--0------0--0---0-------|
B|------3--3------0--0------2--2------2--2------2--2---2-------|
G|------2--2------1--1------2--2------2--2------2--2---2-------|
D|---0---------2---------2---------2---------2---------2-------|
A|-------------------------------------------------------------|
E|-------------------------------------------------------------|
       So-    -omething  good!


~*~tabbed for my BB mmhm luv u~*~

************************************

| /   slide up
| \   slide down

* h   hammer-on *

| p   pull-off
| ~   vibrato
| +   harmonic
| x   Mute note
| b   Bend
| pb  Pre-bend
| br  Bend release
| pbr Pre-bend release
| brb Bend release bend

************************************
            
Submit corrections

↑ Back to top | Tablatures and chords for acoustic guitar and electric guitar, ukulele, drums are parodies/interpretations of the original songs. You may use it for private study, scholarship, research or language learning purposes only