» » »

Infant Sorrow - The Clap Tabs

Artists:  A B C D E F G H I J K L M N O P Q R S T U V W X Y Z # 

The Clap Tabs

(ver. 2) Click to play this song!
Infant Sorrow
 Rating:
4.5/5 (8 votes)
    The Clap lessons Tabs too difficult? Try these video lessons and learn fast
                A good rock song from the movie "Get Him To The Greek".

Intro/Verse
E|---------------------------------     ------------------------|
B|---------------------------------     ------------------------|
G|---------------------------------     ------------------------|
D|------------------5-------------- x2  ------------------------|
A|-----7-7-5-7----7---7----5-4-5---     ---4-4-2-4----4-4-2-4---|
E|---------------------------------     ------------------------|

Chorus

A
We got the itch
C#m
You got the scratch
B                            E              D
Burns, burns, burns like the head of a match
A
You took the front
C#m
I'll take the back

Then when he says "Oh yeah!", the riff below is played.
E|-------------------------|
B|-------------------------|
G|-------------------------|
D|-------------------------|
A|-------------------------|
E|---7-7-5-7-----7-7-5-7---|

Everything basically repeats, up until the end
of the second chorus, where instead of playing
the riff above, he plays the riff below.
This riff also backs the solo. It is played many times.
E|--------------------------------|
B|--------------------------------|
G|--------------------------------|
D|--------------------------------|
A|----------------5---------------|
E|---7-7-5-7---7----7---5-4-5-----|

Well, that's the whole song minus the solo.
            
Submit corrections

↑ Back to top | Tablatures and chords for acoustic guitar and electric guitar, ukulele, drums are parodies/interpretations of the original songs. You may use it for private study, scholarship, research or language learning purposes only