» » »

Incubus - Love Hurts Tabs

Artists:  A B C D E F G H I J K L M N O P Q R S T U V W X Y Z # 

Love Hurts Tabs

(ver. 3) Click to play this song!
Incubus
 Rating:
4/5 (4 votes)


 Love Hurts lessons Tabs too difficult? Try these video lessons and learn fast
 
                                           LOVE HURTS- Incubus
---------------------------------------------------------------------------------------------------------|



Tuning: Standard

*This is the acoustic version. The CD version is played differently*

Intro:
Slight distortion and reverb
e|--------------------------------------|--------------------------------|
B|---8----------------------------------|---8----------------------------|
G|---0-------11-----11-11-12---9--9--10-|---0-------11-----6-6-6\-9--9---|
D|--9-9------x------x--x--x----x--x--x--|--9-9------x------x-x-x--x--x---|2x
A|-7-------12--12---12-12-12---10-10-10-|-7-------12--12---7-7-7\-10-10--|
E|-------10---------10-10-10---8--8--8--|-------10---------5-5-5\-8--8---|


Verse 1:
e|--------------------------------------|--------------------------------|
B|---8----------------------------------|---8----------------------------|
G|---0-------11-----11-11-12---9--9--10-|---0-------11-----6-6-6\-9--9---|
D|--9-9-------------x--x--x----x--x--x--|--9-9-------------x-x-x--x--x---|4x
A|-7-------12--12---12-12-12---10-10-10-|-7-------12--12---7-7-7\-10-10--|
E|-------10---------10-10-10---8--8--8--|-------10---------5-5-5\-8--8---|


Interlude:
e|--------------------|----------------------|-------------------------|
B|--7-7-7-7-7-7-7-7-7-|----------------------|-------------------------|
G|--x-x-x-x-x-x-x-x-x-|-11-11-11-11-11-11-11-|-9--9--9--9--9--9--9--9--|
D|--9-9-9-9-9-9-9-9-9-|-x--x--x--x--x--x--x--|-x--x--x--x--x--x--x--x--|
A|--7-7-7-7-7-7-7-7-7-|-12-12-12-12-12-12-12-|-10-10-10-10-10-10-10-10-|
E|--------------------|-10-10-10-10-10-10-10-|-8--8--8--8--8--8--8--8--|

e|----------------------------|
B|----------------------------|
G|-11-11-11-11-11-11-11-11-11-| (figure out strumming pattern and frequency.
D|-x--x--x--x--x--x--x--x--x--|  These chords may or may not be accurate)
A|-12-12-12-12-12-12-12-12-12-|
E|-10-10-10-10-10-10-10-10-10-|

Chorus:
e|--------------------------------------|--------------------------------|
B|---8----------------------------------|---8----------------------------|
G|---0-------11-----11-11-12---9--9--10-|---0-------11-----6-6-6\-9--9---|
D|--9-9-------------x--x--x----x--x--x--|--9-9-------------x-x-x--x--x---|2x
A|-7-------12--12---12-12-12---10-10-10-|-7-------12--12---7-7-7\-10-10--|
E|-------10---------10-10-10---8--8--8--|-------10---------5-5-5\-8--8---|


Verse 2:
e|--------------------------------------|--------------------------------|
B|---8----------------------------------|---8----------------------------|
G|---0-------11-----11-11-12---9--9--10-|---0-------11-----6-6-6\-9--9---|
D|--9-9-------------x--x--x----x--x--x--|--9-9-------------x-x-x--x--x---|4x
A|-7-------12--12---12-12-12---10-10-10-|-7-------12--12---7-7-7\-10-10--|
E|-------10---------10-10-10---8--8--8--|-------10---------5-5-5\-8--8---|


Chorus:
e|--------------------------------------|--------------------------------|
B|---8----------------------------------|---8----------------------------|
G|---0-------11-----11-11-12---9--9--10-|---0-------11-----6-6-6\-9--9---|
D|--9-9-------------x--x--x----x--x--x--|--9-9-------------x-x-x--x--x---|2x
A|-7-------12--12---12-12-12---10-10-10-|-7-------12--12---7-7-7\-10-10--|
E|-------10---------10-10-10---8--8--8--|-------10---------5-5-5\-8--8---|


Solo:(with interlude chords played behind)

e|----------10----10----10----12---12----12-12---12-----------------|
B|-11~-12-12---12----12---------15---15-------15--------------------|
G|--------------------------------------------------12~-------------|
D|------------------------------------------------------------------|
A|------------------------------------------------------------------|
E|------------------------------------------------------------------|

e|----------10----10----10---12---12---15-15-15p12------------------|
B|-11~-12-12---12----12--------15---15-------------12---------------|
G|---------------------------------------------------12-------------|
D|------------------------------------------------------------------|
A|------------------------------------------------------------------|
E|------------------------------------------------------------------|

e|------------------------------------------------------------------|
B|------------------------------------------------------------------|
G|---------------------12-------------------------------------------|
D|-14---14/12---12\14-----14----14/12---12\14-----------------12-12-|
A|--------------------------------------------14--14/12-12\14-------|
E|------------------------------------------------------------------|

e|------------------------------------------------------------------|
B|------------------------------------------------------------------|
G|---------<12>-----------------------------------------------------|
D|-14-<12>------<12>------------------------------------------------|
A|------------------------------------------------------------------|
E|------------------------------------------------------------------|


Chorus:
e|--------------------------------------|--------------------------------|
B|---8----------------------------------|---8----------------------------|
G|---0-------11-----11-11-12---9--9--10-|---0-------11-----6-6-6\-9--9---|
D|--9-9-------------x--x--x----x--x--x--|--9-9-------------x-x-x--x--x---|2x
A|-7-------12--12---12-12-12---10-10-10-|-7-------12--12---7-7-7\-10-10--|
E|-------10---------10-10-10---8--8--8--|-------10---------5-5-5\-8--8---|
            
Submit corrections



        Love Hurts lessons Hard to play? Try these video lessons and learn fast Love Hurts lessons
        
↑ Back to top | Tablatures and chords for acoustic guitar and electric guitar, ukulele, drums are parodies/interpretations of the original songs. You may use it for private study, scholarship, research or language learning purposes only