» » »

Incubus - Anna Molly Bass

Artists:  A B C D E F G H I J K L M N O P Q R S T U V W X Y Z # 

Anna Molly Bass

(ver. 2) Click to play this song!
Incubus
 Rating:
4/5 (4 votes)


 Anna Molly lessons Tabs too difficult? Try these video lessons and learn fast
 
                
                                Anna Molly                                 


                                                                    Incubus
Bass



     Q.     E     W                   H        H         
G||------------|-------------------|--------------------|
D||------------|-------------------|-----------1--------|
A||---------1--|--3----------------|--L-----------------|
E||------------|-------------------|--------------------|


  W                   Q.     E  H           W                 
-------------------|---------------------|-------------------|
-------------------|---------1--3--------|-------------------|
-------------------|---------------------|--3----------------|
--4----------------|--L------------------|-------------------|


  H        H           H.           E  E     H        H         
--------------------|---------------------|--------------------|
-----------1--------|---------------------|--------------------|
--L-----------------|---------------------|--------------------|
--------------------|--4------------L--1--|--L--------3--------|


    E  E  E  E  Q    Q       E  E  E  E  Q    Q     
|-------------------------|------------------------|
|*------------------------|-------------------1----|
|*--3--3--3--3--3----1----|------------------------|
|-------------------------|--3--3--3--3--3---------|


  E  E  Q    E  E  Q       E  E  Q    E  E  Q       
------------------------|-------------------------||
------------------------|-------------1--1--1----*||
--3--3--3----1--1--1----|------------------------*||
------------------------|--3--3--3----------------||


  E  E  E  E  E  E  Q          E  E  E  E  E  Q    E   
--------------------------||--------------------------|
--5--5--5--5--5--5--------||*-------------------------|
--------------------5S----||*--3--3--3--3--1--3----3--|
--------------------------||--------------------------|


  E  E  Q    Q    Q       E  E  E  E  E  Q    E     E  E  Q    Q    Q     
-----------------------|-------------------------|-----------------------|
--1--------------------|-------------------------|--1--------------------|
-----3--1--------------|--3--3--3--3--1--3----3--|-----3--1--------------|
-------------3----3----|-------------------------|-------------3----3----|


  E  E  E  E  E  Q    E     E  E  Q    Q    Q     
-------------------------|-----------------------|
-------------------------|--1--------------------|
--3--3--3--3--1--3----3--|-----3--1--------------|
-------------------------|-------------3----3----|


  E  E  E  E  E  Q    E     E  E  Q    Q    Q        
-------------------------|-------------------------||
-------------------------|--1----------5----------*||
--3--3--3--3--1--3----3--|-----3--1---------5S----*||
-------------------------|-------------------------||


  Q    E  E  E  Q    E     E  Q    E  E  E  Q       Q    Q    E  Q    E   
------------------------|------------------------|-----------------------|
---------------------1--|--L----------1--1--1----|-----------------------|
--3----3--3--1--3-------|-----3----3-------------|-----------------------|
------------------------|------------------------|--4----4----4--4----4--|


  E  E  E  E  E  E  Q       Q    E  E  E  Q    E   
-------------------------|------------------------|
-----------1--3--3--3----|---------------------1--|
-------------------------|--3----3--3--1--3-------|
--L--4--4----------------|------------------------|


  E  Q    E  E  E  Q       Q    Q    E  Q    E     E  E  Q    E  E  Q     
------------------------|-----------------------|------------------------|
--L----------1--1--1----|-----------------------|------------------------|
-----3----3-------------|-----------------------|------------------------|
------------------------|--4----4----4--4----1--|--L--1--1----3--3--3----|


  E  E  E  E  Q    Q       E  E  E  E  Q    Q       E  E  Q    E  E  Q     
------------------------|------------------------|------------------------|
------------------------|-------------------1----|------------------------|
--3--3--3--3--3----1----|------------------------|--3--3--3----1--1--1----|
------------------------|--3--3--3--3--3---------|------------------------|


  E  E  E  E  E  E  Q          E  E  E  E  E  Q    E   
--------------------------||--------------------------|
--5--5--5--5--5--5--------||*-------------------------|
--------------------5S----||*--3--3--3--3--1--3----3--|
--------------------------||--------------------------|


  E  E  Q    Q    Q       E  E  E  E  E  Q    E     E  E  Q    Q    Q     
-----------------------|-------------------------|-----------------------|
--1--------------------|-------------------------|--1--------------------|
-----3--1--------------|--3--3--3--3--1--3----3--|-----3--1--------------|
-------------3----3----|-------------------------|-------------3----3----|


  E  E  E  E  E  Q    E     E  E  Q    Q    Q     
-------------------------|-----------------------|
-------------------------|--1--------------------|
--3--3--3--3--1--3----3--|-----3--1--------------|
-------------------------|-------------3----3----|


  E  E  E  E  E  Q    E     E  E  Q    Q    Q        
-------------------------|-------------------------||
-------------------------|--1----------5----------*||
--3--3--3--3--1--3----3--|-----3--1---------5S----*||
-------------------------|-------------------------||


   Q    E  E  E  Q    E     E  Q    E  E  E  E  E   
-------------------------|-------------------------|
*---------------------1--|--L----------1--1--1-----|
*--3----3--3--1--3-------|-----3----3-----------1--|
-------------------------|-------------------------|


  Q    Q    E  Q    E     E  E  E  E  E  E  Q       Q    E  E  E  Q    E   
-----------------------|-------------------------|------------------------|
-----------------------|-----------1--3--3--3----|---------------------1--|
-----------------------|-------------------------|--3----3--3--1--3-------|
--4----4----4--4----4--|--L--4--4----------------|------------------------|


  E  Q    E  E  E  E  E     Q    Q    E  Q    E   
-------------------------|-----------------------|
--L----------1--1--1-----|-----------------------|
-----3----3-----------1--|-----------------------|
-------------------------|--4----4----4--4----1--|


  E  E  Q    E  E  Q         Q    Q    E  E  E  E   
-------------------------||------------------------|
------------------------*||--1----1----1--1--1--1--|
------------------------*||------------------------|
--L--1--1----3--3--3-----||------------------------|


  Q    Q    E  E  Q       Q    Q    E  E  E  E     Q    Q    E  E  E  E   
-----------------------|------------------------|------------------------|
--L----1----5--3-------|------------------------|------------3--1--------|
------------------1----|--3----3----3--3--3--3--|--L----3----------3--1--|
-----------------------|------------------------|------------------------|


  Q    Q    E  E  E  E     E  E  Q    E  Q.        Q    Q    E  E  E  E   
------------------------|-----------------------|------------------------|
--1----1----1--1--1--1--|--L--1--1--------------|------------------------|
------------------------|-------------1--1------|--3----3----3--3--3--3--|
------------------------|-----------------------|------------------------|


  Q    Q    E  E  E  E     Q    Q    Q    Q       Q    Q    Q    Q     
------------------------|----------------------|----------------------|
------------------------|----------------------|------------3----3----|
--L----3----3--1--3--1--|----------------------|----------------------|
------------------------|--4----4----4----4----|--4----4--------------|


  Q    Q    Q    Q       Q    Q    Q    Q       Q    Q    Q    Q     
----------------------|----------------------|----------------------|
----------------------|----------------------|----------------------|
--3----3----3----3----|--3----3----3----3----|----------------------|
----------------------|----------------------|--4----4----4----4----|


  Q    Q    Q    Q       Q    Q    E  E  E  E     E  E  E  E  E  E  E  E   
----------------------|------------------------|--------------------------|
----------------------|------------1-----------|--------------------------|
----------------------|--3----3-------3--1--3--|--L--3--3--3--3--3--3--3--|
--4----4----1----1----|------------------------|--------------------------|


    E  E  E  Q    E  E  E     E  E  E  Q    E  Q     
|--------------------------|------------------------|
|*-----------1----1--1-----|-----------1----3--3----|
|*--3--1--3-------------3--|--3--1--3---------------|
|--------------------------|------------------------|


  E  E  E  Q    Q    E     E  Q    E  Q    Q     3x  W                 
------------------------|------------------------||-------------------|
-----------1----1-------|----------3--3----3----*||-------------------|
--3--1--3---------------|-----1-----------------*||-------------------|
---------------------4--|--L---------------------||-------------------|


  W                   W                   W                 
-------------------|-------------------|-------------------|
-------------------|-------------------|-------------------|
-------------------|-------------------|-------------------|
-------------------|-------------------|-------------------|


  W                   W                   W                 
-------------------|-------------------|-------------------|
-------------------|-------------------|-------------------|
-------------------|-------------------|-------------------|
-------------------|-------------------|-------------------|


  H        E  E  E  E      Q    E  E  E  Q    E   
------------------------|------------------------|
------------------------|---------------------1--|
-----------8--8--8--8S--|--3----3--3--1--3-------|
------------------------|------------------------|


  E  Q    E  E  E  E  E     Q    Q    E  Q    E   
-------------------------|-----------------------|
--L----------1--1--1-----|-----------------------|
-----3----3-----------1--|-----------------------|
-------------------------|--4----4----4--4----4--|


  E  E  E  E  E  E  Q         Q    E  E  E  Q    E   
-------------------------||-------------------------|
-----------1--3--3--3----||*---------------------1--|
-------------------------||*--3----3--3--1--3-------|
--L--4--4----------------||-------------------------|


  E  Q    E  E  E  E  E     Q    Q    E  Q    E   
-------------------------|-----------------------|
--L----------1--1--1-----|-----------------------|
-----3----3-----------1--|-----------------------|
-------------------------|--4----4----4--4----1--|


  E  E  Q    E  E  E  E   3x  E  E  E  E  E  E  E  E   
--------------------------||--------------------------|
-------------------------*||--------------------------|
----------------------1--*||--------------------1-----|
--L--1--1----3--3--4------||--L--1--1--1--3--3-----3--|


  E  E  E  E  Q    Q       E  E  E  E  Q    Q       E  E  Q    E  E  Q     
------------------------|------------------------|------------------------|
------------------------|-------------------1----|------------------------|
--3--3--3--3--3----1----|------------------------|--3--3--3----1--1--1----|
------------------------|--3--3--3--3--3---------|------------------------|


  E  E  E  E  E  E  E  E    
--------------------------||
--5--5--5--5--------------||
--------------5--5--5--5--||
--------------------------||




Duration Legend
---------------
W - whole
H - half
Q - quarter
E - 8th
S - 16th
T - 32nd
X - 64th
. - note dotted
|-n-|  - n-tuplets


Tablature Legend
----------------
L - tied note
x - dead note
g - grace note
(n) - ghost note
> - accentuded note
NH - natural harmonic
AH - artificial harmonic
TH - tapped harmonic
SH - semi harmonic
PH - pitch harmonic
h - hammer on
p - pull off
b - bend
br - bendRelease
pb - preBend
pbr - preBendRelease
brb - bendReleaseBend
\n/ - tremolo bar dip
\n - tremolo bar dive
-/n - tremolo bar Release up
/n\ - tremolo bar inverted dip
/n - tremolo bar return
-\n - tremolo bar Release down
S - shift slide
s - legato slide
/ -  slide into from below or out of upwards
\ -  slide into from above or out of downwards
~ - vibrato
W - wide vibrato
tr - trill
TP - tremolo picking
T - tapping
S - slap
P - pop
< - fade in
^ - brush up
v - brush down
            
Submit corrections



        Anna Molly lessons Hard to play? Try these video lessons and learn fast Anna Molly lessons
        
↑ Back to top | Tablatures and chords for acoustic guitar and electric guitar, ukulele, drums are parodies/interpretations of the original songs. You may use it for private study, scholarship, research or language learning purposes only