Home » I » Incantation »

Incantation - Lead To Desolation Tabs

Artists:  A B C D E F G H I J K L M N O P Q R S T U V W X Y Z # 

Lead To Desolation Tabs

(ver. 1) Click to play this song!
Incantation
Tuning: C STANDARD=C,F,A#,D#,G,C

|---------------------------------------------------------------------------|
|---------------------------------------------------------------------------|INTRO AND MAIN RIFF
|---------------------------------------------------------------------------|FASTER TEMPO
|------------------------------------------------3-3-3-3--------------------|
|------------------------------------------------1-1-1-1--------------------|
|-0-0-0-0-0-0---3-h-6-p-3---2-h-5-p-2---0-0-0-0-----------------------------|



|-----------------------------------------------------------------------------|
|-----------------------------------------------------------------------------|
|-----------------------------------------------------------------------------|VERSE
|-----------------------------------------------------------------------------|
|-----------------------------------------------------------------------------|
|-0-0-0-0-0-0---3-h-6-p-3----2-h-5-p-2---0-0-0-0-0--5-h-8-p-5---3-h-7-p-3-0-0-|

|---------------------------------------------------------------------------|
|---------------------------------------------------------------------------|
|---------------------------------------------------------------------------|
|---------------------------------------------------------------------------|
|-----------------------------------------1---------------------------------|
|-0-0-0-0-0----3-h-6-p-3-----2-h-5-p-2-------2-3-2--------------------------|


|----------------------------------------------------------------------------------|
|----------------------------------------------------------------------------------|BRIDGE 1
|----------------------------------------------------------------------------------|SLOWER DOOMY RIFF
|----------------------------------------------------------------------------------|
|-------2---------5----------4--------------------2----------5------------4--------|
|---0-------3-2-------3---2------3-2----------0-------3-2---------3---2------3-2---|



|---------------------------------------------------------------------------|
|---------------------------------------------------------------------------|
|---------------------------------------------------------------------------|CHORUS
|---2---------------3--------------------2-------------3------6-5-----------|
|---2---------------3---------------1----2-------------3------6-5-----------|
|---0-0-0-0-0-0-0-0-1-0-0-0--3h4p3-------0-0-0-0-0-0-0-1-0-0--4-3-----------|



  few times play, drums break and play faster BRIDGE 2.
|---------------------------------------------------------------------------------------------------------|
|---------------------------------------------------------------------------------------------------------|
|---------------------------------------------------------------------------------------------------------|
|-2----3-----6-5---------------------"---------------------------"----------------5------------------7----|
|-2----3-----6-5--------"---"---"---6--------------"----"---"--6-----3-3-3--2-2-------3----4-4-3-3-------4|
|-0----1-----4-3-------0--5---4---------2--3-----0----5---4-----------------------------------------------|


|----------------------------|
|----------------------------|
|----------------------------|END OF BRIDGE 2.
|--------------8-------------|
|--5-5-5-4-4------5----------|
|----------------------------|


|-------------------------------------------------|
|-------------------------------------------------|INTERLUDE!
|------------------"----"----"----"---------------|
|---"----"----"--4----4----0----1-----------------|
|--2---4----3----6----5----1----2-----------------|
|--3---6----5-------------------------------------|
            
Submit corrections

↑ Back to top | Tablatures and chords for acoustic guitar and electric guitar, ukulele, drums are parodies/interpretations of the original songs. You may use it for private study, scholarship, research or language learning purposes only