Home » I » Impressions »

Impressions - Its All Right Tabs

Artists:  A B C D E F G H I J K L M N O P Q R S T U V W X Y Z # 

Its All Right Tabs

(ver. 1) Click to play this song!
Impressions
 Intro
  Q=168
                        C#/G#              F#/A#   C#/G#              F#/A#
 12/8
  Gtr I (Clean El. Gtr.)
  W                     Q.    E E E Q    E Q   E   Q.    E E E Q    E Q   E
|-------------------||--------9----------9----11-|-------9----------9----11-|
|-------------------||o-------9----------9----11-|-------9----------9----11-|
|-------------------||-------10---------10----11-|------10---------10----11-|
|-------------------||---------------------------|--------------------------|
|-------------------||o--------------------------|--------------------------|
|-------------------||---------------------------|--------------------------|
|
| Gtr II (Clean El. Gtr.)
| W                     Q.    Q   E Q.     Q   E   Q.    Q   E Q.     Q   E
|-------------------||---------------------------|--------------------------|
|-------------------||o-6-----6---6-6------7---7-|-6-----6---6-6------7---7-|
|-------------------||--6-----6---6-6------6---6-|-6-----6---6-6------6---6-|
|-------------------||--6-----6---6-6------8---8-|-6-----6---6-6------8---8-|
|-------------------||o--------------------------|--------------------------|
|-------------------||---------------------------|--------------------------|
|
| Gtr III (Horns arr. for Gtr.)
| H.      Q.   Q.       W.                         Q.    Q   E Q    E Q   E
|-------------------||---------------------------|--------------------------|
|-------------------||o--------------------------|--------------------------|
|-------------------||---------------------------|-------------6------8---6-|
|-------------------||--6------------------------|-------8---6------8-------|
|--------------8----||o--------------------------|--------------------------|
|-------------------||---------------------------|--------------------------|


                              1.
  C#/G#   F#/A# C#/G#  F#/A#   C#/G#   F#/C#/G#
   Q    E Q   E Q    E Q   E    Q    E Q   E  Q    E Q     E
|-------9----11------9----11-|-------9----11-------9------11--||
|-------9----11------9----11-|-------9----11-------9------11-o||
|------10----11-----10----11-|------10----11------10------11--||
|----------------------------|--------------------------------||
|----------------------------|-------------------------------o||
|----------------------------|--------------------------------||
|
|  Q.     Q   E Q.     Q   E    Q.     Q   E +Q.     E  E  E
|----------------------------|--------------------------------||
|--6------7---7-6------7---7-|--6------7---6-(6)-----x-------o||
|--6------6---6-6------6---6-|--6------6---6-(6)-----x--------||
|--6------8---8-6------8---8-|--6------8---6-(6)-----x--------||
|----------------------------|-------------------------------o||
|----------------------------|--------------------------------||
|
| +W.                          +H.            Q.     Q.
|----------------------------|--------------------------------||
|----------------------------|-------------------------------o||
|-(6)------------------------|-(6)----------------------------||
|----------------------------|--------------------------------||
|----------------------------|-----------------------8-------o||
|----------------------------|--------------------------------||


 2.
  C#/G#  F#/C#/G#
  Q    E Q   E  Q    E Q    E
|------9----11-------9-----11--||
|------9----11-------9-----11--||
|-----10----11------10-----11--||
|------------------------------||
|------------------------------||
|------------------------------||
|
| Q.     Q   E +Q.     E E  E
|------------------------------||
|-6------7---6-(6)-----x-------||
|-6------6---6-(6)-----x-------||
|-6------8---6-(6)-----x-------||
|------------------------------||
|------------------------------||
|
| W
|------------------------------||
|------------------------------||
|------------------------------||
|------------------------------||
|------------------------------||
|------------------------------||


   1st - 3rd Verses
    C#/G#              F#/A#   C#/G#              F#/A#
    Q.    E E E Q    E Q   E   Q.    E E E Q    E Q   E
||--------9----------9----11-|-------9----------9----11-|
||o-------9----------9----11-|-------9----------9----11-|
||-------10---------10----11-|------10---------10----11-|
||---------------------------|--------------------------|
||o--------------------------|--------------------------|
||---------------------------|--------------------------|
|
|   Q.    Q   E Q.     Q   E   Q.    Q   E Q.     Q   E
||---------------------------|--------------------------|
||o-6-----6---6-6------7---7-|-6-----6---6-6------7---7-|
||--6-----6---6-6------6---6-|-6-----6---6-6------6---6-|
||--6-----6---6-6------8---8-|-6-----6---6-6------8---8-|
||o--------------------------|--------------------------|
||---------------------------|--------------------------|


  C#/G#              F#/A#   C#/G#              F#/A#
  Q.    E E E Q    E Q   E   Q.    E E E Q    E Q   E
|-------9----------9----11-|-------9----------9----11-||
|-------9----------9----11-|-------9----------9----11-||
|------10---------10----11-|------10---------10----11-||
|--------------------------|--------------------------||
|--------------------------|--------------------------||
|--------------------------|--------------------------||
|
| Q.    Q   E Q.     Q   E   Q.    Q   E Q.     Q   E
|--------------------------|--------------------------||
|-6-----6---6-6------7---7-|-6-----6---6-6------7---7-||
|-6-----6---6-6------6---6-|-6-----6---6-6------6---6-||
|-6-----6---6-6------8---8-|-6-----6---6-6------8---8-||
|--------------------------|--------------------------||
|--------------------------|--------------------------||


 Chorus
  C#                         C#/E#D#m
   Q.      E E  E  Q   E  Q   E
|----------9----------13-----13-|
|----------9----------14-----14-|
|---------10----------15-----15-|
|-------------------------------|
|-------------------------------|
|-------------------------------|
|
|  Q    E  Q    E  Q   E  Q   E
|--9----9--9----9-13--13-13--13-|
|--9----9--9----9-14--14-14--14-|
|-10---10-10---10-13--13-13--13-|
|-11---11-11---11-15--15-15--15-|
|-------------------------------|
|-------------------------------|


                                C#/G#
   Q.    E E  E  Q   E  Q   E   Q.    E E E Q   E Q   E
|-------11----------11-----11-|-------9---------9----11--|
|-------11----------11-----11-|-------9---------9----11--|
|-------11----------11-----11-|------10--------10----11--|
|-----------------------------|--------------------------|
|-----------------------------|--------------------------|
|-----------------------------|--------------------------|
|
|  Q.    Q    E  Q   E  Q   E   Q.    Q   E Q   E Q   E
|-11----11---11-11--11-11--11-|--------------------------|
|-11----11---11-11--11-11--11-|-6-----6---6-x---x-x---x--|
|-11----11---11-11--11-11--11-|-6-----6---6-x---x-x---x--|
|-13----13---13-13--13-13--13-|-6-----6---6-x---x-x---x--|
|-----------------------------|--------------------------|
|-----------------------------|--------------------------|


                                                        Bridge
  1.,2.                      3.
                                                      $
                              C#/G#             G#       A#m
  Q.    E E E Q   E Q   E  3x Q.    E E E Q   E Q   E     E  E E Q   E H.
|-------9---------9----11--||-------9---------8-----8-||--9----------9-------|
|-------9---------9----11-o||-------9---------9-----9-||-11---------11-------|
|------10--------10----11--||------10---------8-----8-||-10---------10-------|
|--------------------------||-------------------------||---------------------|
|-------------------------o||-------------------------||---------------------|
|--------------------------||-------------------------||---------------------|
|
| Q.    Q   E Q   E Q   E  3x Q.    Q   E Q.    Q.        Q.     Q   E H.
|--------------------------||-------------------------||--6------x---6-------|
|-6-----6---6-x---x-x---x-o||-6-----6---6-x-----4-----||--6------x---6-------|
|-6-----6---6-x---x-x---x--||-6-----6---6-x-----5-----||--6------x---6-------|
|-6-----6---6-x---x-x---x--||-6-----6---6-x-----6-----||--8------x---8-------|
|-------------------------o||-------------------------||--8------x---8-------|
|--------------------------||-------------------------||--6------x---6-------|


  E#m7                    A#m                     E#m7
   E  E E Q   E H.         E  E E Q   E H.         E  E E Q   E H.
|--8----------8---------|--9----------9---------|--8----------8---------------|
|--9----------9---------|-11---------11---------|--9----------9---------------|
|--8----------8---------|-10---------10---------|--8----------8---------------|
|-----------------------|-----------------------|-----------------------------|
|-----------------------|-----------------------|-----------------------------|
|-----------------------|-----------------------|-----------------------------|
|
|  Q.     Q   E H.         Q.     Q   E H.         Q.     Q   E Q    E  Q.
|--8------x---8---------|--6------x---6---------|--8------x---8------8--8-----|
|--9------x---9---------|--6------x---6---------|--9------x---9------9--9-----|
|--8------x---8---------|--6------x---6---------|--8------x---8------8--8-----|
|-10------x--10---------|--8------x---8---------|-10------x--10-----10-10-----|
|--8------x---8---------|--8------x---8---------|--8------x---8------8--8-----|
|-----------------------|--6------x---6---------|-----------------------------|


  A#m        E#m7                            D#m7
   E  E E Q   E   H.               E  E E Q   E   H.
|--9----------8-----------------|--8----------6-----------------|
|-11----------9-----------------|--9----------7-----------------|
|-10----------8-----------------|--8----------6-----------------|
|-------------------------------|-------------------------------|
|-------------------------------|-------------------------------|
|-------------------------------|-------------------------------|
|
|  Q.     Q   E  +Q    E  Q   E    Q.     Q   E  +Q    E  Q   E
|--6------x---8--(8)---8--8---8-|--8------x---------------------|
|--6------x---9--(9)---9--9---9-|--9------x--11-(11)--11-11--11-|
|--6------x---8--(8)---8--8---8-|--8------x--11-(11)--11-11--11-|
|--8------x--10-(10)--10-10--10-|-10------x--11-(11)--11-11--11-|
|--8------x---8--(8)---8--8---8-|--8------x--13-(13)--13-13--13-|
|--6------x---------------------|------------11-(11)--11-11--11-|


  E#m7       F#
   E  E E Q   E   H.
|--8---------11------------------|
|--9---------11------------------|
|--8---------11------------------|
|--------------------------------|
|--------------------------------|
|--------------------------------|
|
|  Q.     Q   E  +Q    E  Q   E
|--8------x---9--(9)---9--9---9--|
|--9------x--11-(11)--11-11--11--|
|--8------x--11-(11)--11-11--11--|
|-10------x--11-(11)--11-11--11--|
|--8------x---9--(9)---9--9---9--|
|--------------------------------|


  E#m7              G#
   E  E E  Q   E Q   E  Q   E
|--9------13---9----11-11--11-|
|-11------13--11----11-11--11-|
|-10------13--11----11-11--11-|
|-----------------------------|
|-----------------------------|
|-----------------------------|
|
|  Q.      Q   E Q   E  Q   E
|--8-------x--------11-11--11-|
|--9-------x--11----13-13--13-|
|--8-------x--11----13-13--13-|
|-10-------x--11----13-13--13-|
|--8-------x--13----11-11--11-|
|-------------11--------------|


   4th - 6th Verses
    C#/G#              F#/A#   C#/G#              F#/A#
    Q.    E E E Q    E Q   E   Q.    E E E Q    E Q   E
||--------9----------9----11-|-------9----------9----11--|
||o-------9----------9----11-|-------9----------9----11--|
||-------10---------10----11-|------10---------10----11--|
||---------------------------|---------------------------|
||o--------------------------|---------------------------|
||---------------------------|---------------------------|
|
|   Q.    Q   E Q.     Q   E   Q.    Q   E Q.     Q   E
||---------------------------|---------------------------|
||o-6-----6---6-6------7---7-|-6-----6---6-6------7---7--|
||--6-----6---6-6------6---6-|-6-----6---6-6------6---6--|
||--6-----6---6-6------8---8-|-6-----6---6-6------8---8--|
||o--------------------------|---------------------------|
||---------------------------|---------------------------|


  C#/G#              F#/A#   C#/G#              F#/A#
  Q.    E E E Q    E Q   E   Q.    E E E Q    E Q   E
|-------9----------9----11-|-------9----------9----11-||
|-------9----------9----11-|-------9----------9----11-||
|------10---------10----11-|------10---------10----11-||
|--------------------------|--------------------------||
|--------------------------|--------------------------||
|--------------------------|--------------------------||
|
| Q.    Q   E Q.     Q   E   Q.    Q   E Q.     Q   E
|--------------------------|--------------------------||
|-6-----6---6-6------7---7-|-6-----6---6-6------7---7-||
|-6-----6---6-6------6---6-|-6-----6---6-6------6---6-||
|-6-----6---6-6------8---8-|-6-----6---6-6------8---8-||
|--------------------------|--------------------------||
|--------------------------|--------------------------||


 Chorus
  C#              C#/E#
   Q.      E E  E  Q   E  Q   E
|----------9----------13-----13--|
|----------9----------14-----14--|
|---------10----------15-----15--|
|--------------------------------|
|--------------------------------|
|--------------------------------|
|
|  Q    E  Q    E  Q   E  Q   E
|--9----9--9----9-13--13-13--13--|
|--9----9--9----9-14--14-14--14--|
|-10---10-10---10-13--13-13--13--|
|-11---11-11---11-15--15-15--15--|
|--------------------------------|
|--------------------------------|


  D#m
   Q.    E E  E  Q   E  Q   E
|-------11----------11-----11-|
|-------11----------11-----11-|
|-------11----------11-----11-|
|-----------------------------|
|-----------------------------|
|-----------------------------|
|
|  Q.    Q    E  Q   E  Q   E
|-11----11---11-11--11-11--11-|
|-11----11---11-11--11-11--11-|
|-11----11---11-11--11-11--11-|
|-13----13---13-13--13-13--13-|
|-----------------------------|
|-----------------------------|


                            1.
                   To Coda
  C#/G#
  Q.    E E E Q   E Q   E    Q.    E E E Q   E Q   E
|-------9---------9----11--|-------9---------9----11--||
|-------9---------9----11--|-------9---------9----11-o||
|------10--------10----11--|------10--------10----11--||
|--------------------------|--------------------------||
|--------------------------|-------------------------o||
|--------------------------|--------------------------||
|
| Q.    Q   E Q   E Q   E    Q.    Q   E Q   E Q   E
|--------------------------|--------------------------||
|-6-----6---6-x---x-x---x--|-6-----6---6-x---x-x---x-o||
|-6-----6---6-x---x-x---x--|-6-----6---6-x---x-x---x--||
|-6-----6---6-x---x-x---x--|-6-----6---6-x---x-x---x--||
|--------------------------|-------------------------o||
|--------------------------|--------------------------||


  2.
              D.S. al Coda &
  C#/G#             G#
  Q.    E E E Q   E Q   E
|-------9---------8-----8--||
|-------9---------9-----9--||
|------10---------8-----8--||
|--------------------------||
|--------------------------||
|--------------------------||
|
| Q.    Q   E E E E Q.
|--------------------------||
|-6-----6---6-x-----4------||
|-6-----6---6-x-----5------||
|-6-----6---6-x-----6------||
|--------------------------||
|--------------------------||


                            Outro
  C#/G#                      C#/G#              F#/A#
  Q.    E E E Q   E Q   E    Q.    E E E Q    E Q   E
|-------9---------9----11-||-------9----------9----11-|
|-------9---------9----11-||-------9----------9----11-|
|------10--------10----11-||------10---------10----11-|
|-------------------------||--------------------------|
|-------------------------||--------------------------|
|-------------------------||--------------------------|
|
| Q.    Q   E Q   E Q   E    Q.    Q   E Q.     Q   E
|-------------------------||--------------------------|
|-6-----6---6-x---x-x---x-||-6-----6---6-6------7---7-|
|-6-----6---6-x---x-x---x-||-6-----6---6-6------6---6-|
|-6-----6---6-x---x-x---x-||-6-----6---6-6------8---8-|
|-------------------------||--------------------------|
|-------------------------||--------------------------|


  C#/G#              F#/A#   C#/G#              F#/A#
  Q.    E E E Q    E Q   E   Q.    E E E Q    E Q   E
|-------9----------9----11-|-------9----------9----11-|
|-------9----------9----11-|-------9----------9----11-|
|------10---------10----11-|------10---------10----11-|
|--------------------------|--------------------------|
|--------------------------|--------------------------|
|--------------------------|--------------------------|
|
| Q.    Q   E Q.     Q   E   Q.    Q   E Q.     Q   E
|--------------------------|--------------------------|
|-6-----6---6-6------7---7-|-6-----6---6-6------7---7-|
|-6-----6---6-6------6---6-|-6-----6---6-6------6---6-|
|-6-----6---6-6------8---8-|-6-----6---6-6------8---8-|
|--------------------------|--------------------------|
|--------------------------|--------------------------|


  C#/G#              F#/A#
  Q.    E E E Q    E Q   E
|-------9----------9----11--*|
|-------9----------9----11--*|
|------10---------10----11--*|
|---------------------------*|
|---------------------------*|
|---------------------------*|
|
| Q.    Q   E Q.     Q   E
|---------------------------*|
|-6-----6---6-6------7---7--*|
|-6-----6---6-6------6---6--*|
|-6-----6---6-6------8---8--*|
|---------------------------*|
|---------------------------*|            
Submit corrections

↑ Back to top | Tablatures and chords for acoustic guitar and electric guitar, ukulele, drums are parodies/interpretations of the original songs. You may use it for private study, scholarship, research or language learning purposes only