» » »

Impending Doom - More Than Conquerors Bass

Artists:  A B C D E F G H I J K L M N O P Q R S T U V W X Y Z # 

More Than Conquerors Bass

(ver. 1) Click to play this song!
Impending Doom
 Rating:
4/5 (4 votes)
                +++++++++++++++++++++++++++++++++++++
|Impending Doom-More Than Conquerors|
+++++++++++++++++++++++++++++++++++++

Tuning:Drop A (AEAD)

guitar intro
D|----------------|-------------------------|-------------------------|
A|----------------|-------------------------|-------------------------|
E|----------------|---------------2---------|---------------2---------|
A|----------------|-4-1-2-0-4-1-2---2-1-0-1-|-4-1-2-0-4-1-2---2-1-0-1-|

|-------------------------|-------------------------|
|-------------------------|-------------------------|
|---------------2---------|---------------2---------|
|-4-1-2-0-4-1-2---2-1-0-1-|-4-1-2-0-4-1-2---2-1-0-1-|

|-------------------------|-------------------------|
|-------------------------|-------------------------|
|---------------2---------|---------------2---------|
|-4-1-2-0-4-1-2---2-1-0-1-|-4-1-2-0-4-1-2---2-1-0-1-|

|-------------------------|-------------------------|
|-------------------------|-------------------------|
|---------------2---------|---------------2---------|
|-4-1-2-0-4-1-2---2-1-0-1-|-4-1-2-0-4-1-2---2-1-0-1-|

|-------------------------|-------------------------|
|-------------------------|-------------------------|
|---------------2---------|---------------2---------|
|-4-1-2-0-4-1-2---2-1-0-1-|-4-1-2-0-4-1-2---2-1-0-1-|

|-------------------------|-------------------------|
|-------------------------|-------------------------|
|---------------2---------|---------------2---------|
|-4-1-2-0-4-1-2---2-1-0-1-|-4-1-2-0-4-1-2---2-1-0-1-|

|----------------|----------------|
|----------------|----------------|
|-----------2~---|-----------2~---|
|-1~---2~------2-|-1~---2~------2-|

|-----------------------|-----------------------|
|-----------------------|-----------------------|
|------------------2~---|------------------2~---|
|-1--111111-2--222----2-|-1--111111-2--222----2-|

|---------------------------------------------------------------------|
|---------------------------------------------------------------------|
|-4---------------4---------------4---------------4---------------4---|
|---5-2222-22-222---5-2222-22-222---5-2222-22-222---5-2222-22-222---5-|

|--------------------------------------------------------|------|
|--------------------------------------------------------|------|
|----------------------------------------------------4---|------|
|-2222-22-222--2222-22-222--2222-22-222--2222-22-222---5-|-222x-|

|-------------------------|-------------------------|
|-------------------------|-------------------------|
|---------------2---------|---------------2---------|
|-4-1-2-0-4-1-2---2-1-0-1-|-4-1-2-0-4-1-2---2-1-0-1-|

|-------------------------|-------------------------|
|-------------------------|-------------------------|
|---------------2---------|---------------2---------|
|-4-1-2-0-4-1-2---2-1-0-1-|-4-1-2-0-4-1-2---2-1-0-1-|

|-------------------------|-------------------------|
|-------------------------|-------------------------|
|---------------2---------|---------------2---------|
|-4-1-2-0-4-1-2---2-1-0-1-|-4-1-2-0-4-1-2---2-1-0-1-|

|-------------------------|-------------------------|
|-------------------------|-------------------------|
|---------------2---------|---------------2---------|
|-4-1-2-0-4-1-2---2-1-0-1-|-4-1-2-0-4-1-2---2-1-0-1-|

|-------------------------|-------------------------|
|-------------------------|-------------------------|
|---------------2---------|---------------2---------|
|-4-1-2-0-4-1-2---2-1-0-1-|-4-1-2-0-4-1-2---2-1-0-1-|

|-------------------------|-------------------------|
|-------------------------|-------------------------|
|---------------2---------|---------------2---------|
|-4-1-2-0-4-1-2---2-1-0-1-|-4-1-2-0-4-1-2---2-1-0-1-|

|----------------|----------------|
|----------------|----------------|
|-----------2~---|-----------2~---|
|-1~---2~------2-|-1~---2~------2-|

|-----------------------|-----------------------|-----------------|
|-----------------------|-----------------------|-----------------|
|------------------2~---|------------------2~---|-----------------|
|-1--111111-2--222----2-|-1--111111-2--222----2-|-1~--------------|

|---------|----------|---------|----------|---------|----------|---------|
|---------|----------|---------|----------|---------|----------|---------|
|---------|----------|---------|----------|---------|----------|---------|
|-2-000-1-|----------|-2-000-1-|----------|-2-000-1-|----------|-2-000-1-|

Guitar plays in rest
|-----------------------------------------|
|-----------------------------------------|
|-----------------------------------------|
|---------------------------------111-111-|

|-----------------------------------------|
|-----------------------------------------|
|-----------------------------------------|
|---------------------------------111-111-|

|-----------------------------------------|
|-----------------------------------------|
|--------------4--------------------------|
|-1-0-1-00-1-0---1-0-1-0-1-00-1-0-111-111-|

|-----------------------------------------|
|-----------------------------------------|
|--------------4--------------------------|
|-1-0-1-00-1-0---1-0-1-0-1-00-1-0-111-111-|

|-----------------------------------------|
|-----------------------------------------|
|--------------4--------------------------|
|-1-0-1-00-1-0---1-0-1-0-1-00-1-0-111-111-|

|-----------------------------------------|
|-----------------------------------------|
|--------------4--------------------------|
|-1-0-1-00-1-0---1-0-1-0-1-00-1-0--0------|

|-----------------------------|-----------------------------|
|-----------------------------|-----------------------------|
|-----------------------------|-----------------------------|
|-1111-1111-11111111-1-1-1111-|-1111-1111-11111111-1-1-1111-|

|-----------------------------|-----------------------------|
|-----------------------------|-----------------------------|
|-----------------------------|-----------------------------|
|-1111-1111-11111111-1-1-1111-|-1111-1111-11111111-1-1-1111-|

|-------------------------------------------------|
|-------------------------------------------------|
|---------1-----------1-----------1-----------1/4-|
|-2~-1~-1---0-2~-1~-1---0-2~-1~-1---0-2~-1~-1-----|

|-------------------------------------------------|
|-------------------------------------------------|
|---------1-----------1-----------1-----------1/4-|
|-2~-1~-1---0-2~-1~-1---0-2~-1~-1---0-2~-1~-1-----|

|-----------------------------|---------------------------|
|-----------------------------|---------------------------|
|-----------------------------|---------------------------|
|-1111-1111-11111111-1-1-1111-|-1111-1111-11111111-1-1-4\-|

|-----------------------------|---------------------------|
|-----------------------------|---------------------------|
|-----------------------------|---------------------------|
|-1111-1111-11111111-1-1-1111-|-1111-1111-11111111-1-1-4\-|

|-----------------------------|---------------------------|
|-----------------------------|---------------------------|
|-----------------------------|---------------------------|
|-1111-1111-11111111-1-1-1111-|-1111-1111-11111111-1-1-4\-|

|-----------------------------|---------------------------|
|-----------------------------|---------------------------|
|-----------------------------|---------------------------|
|-1111-1111-11111111-1-1-1111-|-1111-1111-11111111-1-1-4\-|

|---------|
|---------|
|---------|
|-111-111-|

Lyrics:

If you wanna find heaven with me,I will show you the way,
Eternal youth,forever young,immortalize your name,
My foolish heart, put nails through me,
On his day I will be ready,
We are the children of the age,out of control,out of age,
We will demolish this religion that you have made,
Nails, 
Through,
Me,
If you wanna find heaven with me, I will show you the way,
Uphold my name so I can proudly claim yours,
We call you god,but are you king,
Strip me of my status,my everything,immortalize your name,
We are the children of the age,
Out of control out of age,we will demolish this religion that you have made,
We will battle for our kingdom,we are more than conquerors.

____________________________________________________________________________

That's it..I'll be doing more Impending Doom so please comment 
and rate my tabs!!!!!

+++++++
|Enjoy|
+++++++
            
Submit corrections

↑ Back to top | Tablatures and chords for acoustic guitar and electric guitar, ukulele, drums are parodies/interpretations of the original songs. You may use it for private study, scholarship, research or language learning purposes only