Home » I » Immortal Technique »

Immortal Technique - Harlem Streets Tabs

Artists:  A B C D E F G H I J K L M N O P Q R S T U V W X Y Z # 

Harlem Streets Tabs

(ver. 3) Click to play this song!
Immortal Technique
Tuning: standard


e|-----------------10--------------14---12-----------------------------------|
B|----------------------------------------12---------------------------------|
G|---------------------------------------------------------------------------|
D|---------------------------------------------------------------------------|
A|---------------------------------------------------------------------------|
E|---------------------------------------------------------------------------|

e|---------------------------------------------------------------------------|
B|---------------------------------------------------------------------------|
G|------------------------------------------11---9---------------------------|
D|--------9-----11-----12-----------------------------11--------11-----------|
A|---------------------------------------------------------------------------|
E|---------------------------------------------------------------------------|            
Submit corrections

↑ Back to top | Tablatures and chords for acoustic guitar and electric guitar, ukulele, drums are parodies/interpretations of the original songs. You may use it for private study, scholarship, research or language learning purposes only