» » »

I Fight Dragons - Dont You Tabs

Artists:  A B C D E F G H I J K L M N O P Q R S T U V W X Y Z # 

Dont You Tabs

(ver. 1) Click to play this song!
I Fight Dragons
 Rating:
4/5 (4 votes)


 Dont You lessons Tabs too difficult? Try these video lessons and learn fast
 
                Don't You - Solo

Beginning-Hits
E------------------------------------------------------------------|
B-------------12-h13-h14-15~~~~~~-------------12-h13-h14-15^17^15--|
G---11-h12-h14--------------------11-h12-h14-----------------------|
D------------------------------------------------------------------|
A------------------------------------------------------------------|
E------------------------------------------------------------------|
                                     ("chorus melody")
E-----------------------12--14--12-14-12-|/15-15-14----------------|
B------------12-h13-h15------------------|----------15-/17-15------|
G--11-h12-h14----------------------------|-------------------16~~--|
D----------------------------------------|-------------------------|
A----------------------------------------|-------------------------|
E----------------------------------------|-------------------------|
                                       ("pentatonic climbs")
E-10-10-10-10--10-10-10--------------------|-----------------------|
B-10-12-10-12--10----10--------------------|-----------------------|
G-----------------12-----12-11-------------|-----------------------|
D------------------------------12--9-------|--------------12-14----|
A------------------------------------12-10-|-------10-/14-------14-|
E------------------------------------------|-10-12-----------------|

E----------------------------------------------------15------15---15-|
B-----------------------------------15-17----15-17------15-17---17---|
G-------12-14-^16^14-p12----12--/16-------16-------16----------------|
D-12-14------------------14------------------------------------------|
A--------------------------------------------------------------------|
E--------------------------------------------------------------------|
   ("fast finish riff")
E---|-19-p15--15-17-p15-17-p15----15-19-p15-19-p15--15-17-p15-17-p15-|
B-17|-------17-----------------17-----------------17-----------------|
G---|----------------------------------------------------------------|
D---|----------------------------------------------------------------|
A---|----------------------------------------------------------------|
E---|----------------------------------------------------------------|

E----15-19-p15-19-p15----15-17-p15--------15~~~~~------------------|
B-17------------------17-----------17-p15--------------------------|
G------------------------------------------------------------------|
D------------------------------------------------------------------|
A------------------------------------------------------------------|
E------------------------------------------------------------------|
            
Submit corrections



        Dont You lessons Hard to play? Try these video lessons and learn fast Dont You lessons
        
↑ Back to top | Tablatures and chords for acoustic guitar and electric guitar, ukulele, drums are parodies/interpretations of the original songs. You may use it for private study, scholarship, research or language learning purposes only