Home » I » Idina Menzel »

Idina Menzel - Let It Go Ukulele

Artists:  A B C D E F G H I J K L M N O P Q R S T U V W X Y Z # 

Let It Go Ukulele

(ver. 1) Click to play this song!
Idina Menzel
(Intro)
A few friends and I play this song on the ukulele, we pretty much follow the same 
chords as other tabs.
 
I took it upon myself to figure out a version of the intro and that crazy bit in the middle. 

One caveat, considering the limitations of the uke, this isn't %100 accurate.


Intro:

     Em                C                  D               Asus4    Am

A|---2-------------|---3-------3-----|-----------------|---0------0-----|
E|---2H3-----2--3--|---2H3-----3--2--|---0H2-----0-H2--|---0------0-----|
C|---4----4--------|---0----0--------|---2----2--------|---2------0-----|
G|-----------------|-----------------|---2-------------|---2------2-----|


     Em                C                  D               Asus4    A

A|---2-------------|---3-------3-----|-----------------|---0------0-----|
E|---2H3-----2--3--|---2H3-----3--2--|---0H2-----0-H2--|---0------0-----|
C|---4----4--------|---0----0--------|---2----2--------|---2------1-----|
G|-----------------|-----------------|---2-------------|---2------2-----|




Bridge:

Technically, the strings play this line once, then the piano plays a similar line, 
but twice as fast. 

Also, unless you're playing with a low G, the last two notes are an octave higher.


A|--------------1-P0--------|-------------------------------|
E|-----1--3--1--------3--1--|--------3--------3-------------|    x2
C|--0-----------------------|--3->5-----4-H5----------------|
G|--------------------------|--------------------3--5-------|




h = Hammer 
P = Pull            
> = Slide
            
Submit corrections

↑ Back to top | Tablatures and chords for acoustic guitar and electric guitar, ukulele, drums are parodies/interpretations of the original songs. You may use it for private study, scholarship, research or language learning purposes only