» » »

Idina Menzel - Let It Go Tabs

Artists:  A B C D E F G H I J K L M N O P Q R S T U V W X Y Z # 

Let It Go Tabs

(ver. 1) Click to play this song!
Idina Menzel
 Rating:
4.2/5 (11 votes)


 Let It Go lessons Tabs too difficult? Try these video lessons and learn fast
 
                [Intro]

e|---2h3----2--3--|--2h3----3--2----|-0h2----0--2------|-----------|
B|--------0-------|-------0---------|------3-------3---|-3---------|
G|----------------|---------------2-|------------------|-----5-----|
D|---2------------|-----------------|-0----------------|-----------|
A|----------------|--3--------------|----------------0-|-----------|
E|----------------|-----------------|------------------|-----------|

e|---2h3----2--3--|--3p2----3--2----|-0h2----0--2----|------------|
B|--------0-------|-------0---------|------3-------3-|-3---2------|
G|----------------|---------------2-|----------------|------------|
D|---2------------|-----------------|-0--------------|------------|
A|----------------|--3--------------|----------------|-0----------|
E|----------------|-----------------|----------------|------------|
            
Submit corrections



        Let It Go lessons Hard to play? Try these video lessons and learn fast Let It Go lessons
        
↑ Back to top | Tablatures and chords for acoustic guitar and electric guitar, ukulele, drums are parodies/interpretations of the original songs. You may use it for private study, scholarship, research or language learning purposes only