» » »

Ice Nine Kills - Build Your Own Disaster Tabs

Artists:  A B C D E F G H I J K L M N O P Q R S T U V W X Y Z # 

Build Your Own Disaster Tabs

(ver. 3) Click to play this song!
Ice Nine Kills
 Rating:
4.3/5 (6 votes)
    Build Your Own Disaster lessons Tabs too difficult? Try these video lessons and learn fast
                (Intro)
Capo on the 10th fret... much easier on the fingers. This is my first tab, enjoy!


E|--------------------------------------------------------------------------|
B|-----------1--------------------------------------------------------------|
G|-----2-----------2-----2-----0-----3-----2-----2-----2-----0-----2-----2--|
D|--------------------------------------------------------------------------|
A|--------------------------1-----1-----1-----1-----------------------------|
D|--0-----0-----0-----0-----------------------------3-----3-----3-----3-----|

E|--------------------------------------------------------------------------|
B|--------------------------------------------------------------------------|
G|-----2-----0----2-0-------------------------------------------------------|
D|--------------------3-----------------------------------------------------|
A|--------------------------------------------------------------------------|
D|--2-----2-----2-----------------------------------------------------------|
            
Submit corrections

↑ Back to top | Tablatures and chords for acoustic guitar and electric guitar, ukulele, drums are parodies/interpretations of the original songs. You may use it for private study, scholarship, research or language learning purposes only