Home » I » Iced Earth »

Iced Earth - When The Night Falls Tabs

Artists:  A B C D E F G H I J K L M N O P Q R S T U V W X Y Z # 

When The Night Falls Tabs

(ver. 3) Click to play this song!
Iced Earth

WHEN THE NIGHT FALLS
As recorded by Iced Earth
(From the 1991 Album ICED EARTH)



 Words and Music by Jon Schaffer
 

Gtr I (Eb Ab Db Gb Bb Eb) - 'Distortion Guitar'
Gtr II (Eb Ab Db Gb Bb Eb) - 'Distortion Guitar'
Gtr III (Eb Ab Db Gb Bb Eb) - 'Clean Guitar'
Gtr IV (Eb Ab Db Gb Bb Eb) - 'Clean Guitar'
Gtr V (Eb Ab Db Gb Bb Eb) - 'Distortion Guitar'


 Intro
  Q=82
  G5/E            Dsus4             G5/E            Dsus4
 4/4
  Gtr III
  S E S +S  S S S S E S +S  S S S   S E S +S  S S S S E S +S  S S S
|---------------------------------|---------------------------------|
|---------------------------------|---------------------------------|
|-----7-(7)-----------0-(0)-------|-----7-(7)-----------0-(0)-------|
|---5-------5---5---7-------7---7-|---5-------5---5---7-------7---7-|
|-7-----------7---5-----------5---|-7-----------7---5-----------5---|
|---------------------------------|---------------------------------|


  G5/E            Dsus4             G5/E            Dsus4
  S E S +S  S S S S E S +S  S S S   S E S +S  S S S S E S +S  S S S
|---------------------------------|---------------------------------|
|---------------------------------|---------------------------------|
|-----7-(7)-----------0-(0)-------|-----7-(7)-----------0-(0)-------|
|---5-------5---5---7-------7---7-|---5-------5---5---7-------7---7-|
|-7-----------7---5-----------5---|-7-----------7---5-----------5---|
|---------------------------------|---------------------------------|


  Fmaj7
  S E S +S  S S  S  +S  S S S +S  S E   S E S +S  S S  S  +S  S S S +S  S E
|-------------------------------------|-------------------------------------|
|-------------------------------------|-------------------------------------|
|-----9-(9)-----10-(10)-----9-(9)-----|-----9-(9)-----10-(10)-----9-(9)-----|
|---7-------7-------------7-------7---|---7-------7-------------7-------7---|
|-8-----------8---------8-----------8-|-8-----------8---------8-----------8-|
|-------------------------------------|-------------------------------------|


  G5/E            Dsus4             G5/E            Dsus4
  S E S +S  S S S S E S +S  S S S   S E S +S  S S S S E S +S  S S S
|---------------------------------|---------------------------------|
|---------------------------------|---------------------------------|
|-----7-(7)-----------0-(0)-------|-----7-(7)-----------0-(0)-------|
|---5-------5---5---7-------7---7-|---5-------5---5---7-------7---7-|
|-7-----------7---5-----------5---|-7-----------7---5-----------5---|
|---------------------------------|---------------------------------|


  Fmaj7
  S E S +S  S S  S  +S  S S S +S  S E   S E S +S  S S  S  +S  S S S +S  S E
|-------------------------------------|-------------------------------------|
|-------------------------------------|-------------------------------------|
|-----9-(9)-----10-(10)-----9-(9)-----|-----9-(9)-----10-(10)-----9-(9)-----|
|---7-------7-------------7-------7---|---7-------7-------------7-------7---|
|-8-----------8---------8-----------8-|-8-----------8---------8-----------8-|
|-------------------------------------|-------------------------------------|


  Gmaj7/B         C                 Gmaj7/B
  S E S +S  S S S S E S +S  S S S   S E S +S  S S S S E S +S  S S S
|---------------------------------|---------------------------------|
|---------------------------------|---------------------------------|
|-----0-(0)-----------0-(0)-------|-----0-(0)-----------0-(0)-------|
|---4-------4---4---2-------2---2-|---4-------4---4---3-------3---3-|
|-2-----------2---3-----------3---|-2-----------2---1-----------1---|
|---------------------------------|---------------------------------|


  Gmaj7/B         C                 Gmaj7/B         F5      G5
  S E S +S  S S S S E S +S  S S S   S E S +S  S S S S S S S S S S S
|---------------------------------|---------------------------------|
|---------------------------------|---------------------------------|
|-----0-(0)-----------0-(0)-------|-----0-(0)-----------------------|
|---4-------4---4---2-------2---2-|---4-------4---4-----3-------5---|
|-2-----------2---3-----------3---|-2-----------2-----3-------5-----|
|---------------------------------|-----------------1-------3-------|


  N.C.
  Gtr IV
  S E S +S  S S  S  +S  S Q.     S E S +S  S S  S  +S  S Q.
|------------------------------|------------------------------|
|------------------------------|-------------------------8----|
|-----9-(9)-7-9-10-(10)-9------|-----9-(9)-7-9-10-(10)-9------|
|---7---------------------9----|---7--------------------------|
|-0----------------------------|-0----------------------------|
|------------------------------|------------------------------|
|
| Gtr III
| S E S +S  S S  S  +S  S Q.     S E S +S  S S  S  +S  S Q.
|------------------------------|------------------------------|
|-------------------------0----|-------------------------0----|
|-----5-(5)-------------4------|-----5-(5)-------------4------|
|---7-------7----5--(5)--------|---7-------7----5--(5)--------|
|-0-----------0----------------|-0-----------0----------------|
|------------------------------|------------------------------|


  S E S +S  S S  S  +S  S Q.     S E S +S  S S  S  +S  S Q.
|------------------------------|------------------------------|
|------------------------------|------------------------------|
|-----9-(9)-7-9-10-(10)-9------|-----9-(9)-7-9-10-(10)-9-0----|
|---7---------------------9----|---7--------------------------|
|-0----------------------------|-0----------------------------|
|------------------------------|------------------------------|
|
| S E S +S  S S  S  +S  S Q.     S E S +S  S S  S  +S  S Q.
|------------------------------|------------------------------|
|-------------------------0----|-------------------------0----|
|-----5-(5)-------------4------|-----5-(5)-------------4------|
|---7-------7----5--(5)--------|---7-------7----5--(5)--------|
|-0-----------0----------------|-0-----------0----------------|
|------------------------------|------------------------------|


  Fmaj7
  Gtr III
  S E S +S  S S  S  +S  S S S +S  S E   S E S +S  S S  S  +S  S S S +S  S E
|-------------------------------------|-------------------------------------|
|-------------------------------------|-------------------------------------|
|-----9-(9)-----10-(10)-----9-(9)-----|-----9-(9)-----10-(10)-----9-(9)-----|
|---7-------7-------------7-------7---|---7-------7-------------7-------7---|
|-8-----------8---------8-----------8-|-8-----------8---------8-----------8-|
|-------------------------------------|-------------------------------------|


  Gmaj7/B         C                 Gmaj7/B
  S E S +S  S S S S E S +S  S S S   S E S +S  S S S S E S +S  S S S
|---------------------------------|---------------------------------|
|---------------------------------|---------------------------------|
|-----0-(0)-----------0-(0)-------|-----0-(0)-----------0-(0)-------|
|---4-------4---4---2-------2---2-|---4-------4---4---3-------3---3-|
|-2-----------2---3-----------3---|-2-----------2---1-----------1---|
|---------------------------------|---------------------------------|


  Gmaj7/B         C                 Gmaj7/B         F5      G5
                                                    Gtrs I, II
                                                    PM------------|
  S E S +S  S S S S E S +S  S S S   S E S +S  S S S S S S S S S S S
|---------------------------------|---------------------------------||
|---------------------------------|---------------------------------||
|-----0-(0)-----------0-(0)-------|-----0-(0)-----------------------||
|---4-------4---4---2-------2---2-|---4-------4---4-----------------||
|-2-----------2---3-----------3---|-2-----------2---3-3-3-3-5-5-5-5-||
|---------------------------------|-----------------1-1-1-1-3-3-3-3-||


   Chorus Riff
    Q=165
    E5            Em    D           C             N.C.
            PM|           PM  PM                  PM----------------|
    H    Q  E E   E E E E E E E E   H    Q  E E   E S S E E S S E E E   4x
||--------------|-----------------|-------------|-----------------------||
||o-------------|-----------------|-------------|----------------------o||
||--------------|-----------------|-------------|-----------------------||
||--------------|-5-5-5-4---4---4-|-2----2--2---|-----------------------||
||o-2----2------|-7-7-7-5-0-5-0-5-|-3----3--3p0-|----------------------o||
||--0----0--0-0-|-----------------|-------------|-3-3-3-3-2-2-2-2-1-0---||


 Pre-Verse
  Q=210
  E5                                         A5
  Gtr II
     PM------------------------------------|
  Q  E S S E S S E S S   E S S E S S E S S E  E
|----------------------|------------------------|
|----------------------|------------------------|
|----------------------|---------------------14-|
|----------------------|------------------------|
|-2--------------------|---------------------12-|
|-0--0-0-0-0-0-0-0-0-0-|-0-0-0-0-0-0-0-0-0-0----|
|
| Gtr I
|    PM------------------------------------|
| Q  E S S E S S E S S   E S S E S S E S S E  E
|----------------------|------------------------|
|----------------------|------------------------|
|----------------------|------------------------|
|----------------------|------------------------|
|-2--------------------|----------------------7-|
|-0--0-0-0-0-0-0-0-0-0-|-0-0-0-0-0-0-0-0-0-0--5-|


                          G5                           E5
   +H.                +E   E    +H.                +E  E
|----------------------------|-----------------------------|
|----------------------------|-----------------------------|
|-(14)---------------(14)-12-|-(12)---------------(12)-9---|
|----------------------------|-----------------------------|
|-(12)---------------(12)-10-|-(10)---------------(10)-7---|
|----------------------------|-----------------------------|
|
|      PM------------|              PM------------|
|  +E  E E S S E S S   E   E    +E  E E S S E S S   E  E
|----------------------------|-----------------------------|
|----------------------------|-----------------------------|
|----------------------------|-----------------------------|
|----------------------------|-----------------------------|
|--(7)---------------------5-|--(5)--------------------2---|
|--(5)-0-0-0-0-0-0-0---0---3-|--(3)-0-0-0-0-0-0-0---0--0---|


                                                    A5
  +W                        +H.                 +E   E
|-------------------------|----------------------------|
|-------------------------|----------------------------|
|-(9)---------------------|-(9)-----------------(9)-14-|
|-------------------------|----------------------------|
|-(7)---------------------|-(7)-----------------(7)-12-|
|-------------------------|----------------------------|
|
|     PM----------------------------------------|
| +E  E E S S E S S E S S    E  S S E S S E S S  E   E
|-------------------------|----------------------------|
|-------------------------|----------------------------|
|-------------------------|----------------------------|
|-------------------------|----------------------------|
|-(2)---------------------|--------------------------7-|
|-(0)-0-0-0-0-0-0-0-0-0-0-|--0--0-0-0-0-0-0-0-0--0---5-|


                          G5                           E5
   +H.                +E   E    +H.                +E  E
|----------------------------|-----------------------------|
|----------------------------|-----------------------------|
|-(14)---------------(14)-12-|-(12)---------------(12)-9---|
|----------------------------|-----------------------------|
|-(12)---------------(12)-10-|-(10)---------------(10)-7---|
|----------------------------|-----------------------------|
|
|      PM------------|              PM------------|
|  +E  E E S S E S S   E   E    +E  E E S S E S S   E  E
|----------------------------|-----------------------------|
|----------------------------|-----------------------------|
|----------------------------|-----------------------------|
|----------------------------|-----------------------------|
|--(7)---------------------5-|--(5)--------------------2---|
|--(5)-0-0-0-0-0-0-0---0---3-|--(3)-0-0-0-0-0-0-0---0--0---|


                                                    A5
  +W                        +H.                 +E  E
|-------------------------|---------------------------|
|-------------------------|---------------------------|
|-(9)---------------------|-(9)-----------------(9)---|
|-------------------------|---------------------------|
|-(7)---------------------|-(7)-----------------(7)-7-|
|-------------------------|-------------------------5-|
|
|     PM----------------------------------------|
| +E  E E S S E S S E S S    E  S S E S S E S S  E  E
|-------------------------|---------------------------|
|-------------------------|---------------------------|
|-------------------------|---------------------------|
|-------------------------|---------------------------|
|-(2)---------------------|-------------------------7-|
|-(0)-0-0-0-0-0-0-0-0-0-0-|--0--0-0-0-0-0-0-0-0--0--5-|


                  G5                  E5
      PM--------|         PM--------|
  +E  E E E E E E E   +E  E E E E E E E
|-------------------|-------------------|
|-------------------|-------------------|
|-------------------|-------------------|
|-------------------|-------------------|
|-(7)-------------5-|-(5)-------------2-|
|-(5)-5-5-5-5-5-5-3-|-(3)-3-3-3-3-3-3-0-|
|
|     PM--------|         PM--------|
| +E  E E E E E E E   +E  E E E E E E E
|-------------------|-------------------|
|-------------------|-------------------|
|-------------------|-------------------|
|-------------------|-------------------|
|-(7)-------------5-|-(5)-------------2-|
|-(5)-5-5-5-5-5-5-3-|-(3)-3-3-3-3-3-3-0-|


    Q=216
        N.C.                          A5
    Gtrs I, II
        PM  PM  PM  PM    PM  PM  PM|
    +E  E E E E E E E   E E E E E E E E
||--------------------|-----------------|
||o-------------------|-----------------|
||--------------------|-----------------|
||--------------------|-----------------|
||o-(2)---5---4---2---|-0---2---5-4-2-7-|
||--(0)-0---0---0---0-|---0---0-------5-|


                     G5                     E5
       PM----------|          PM----------|
  +Q   E S S E S S E E   +Q   E S S E S S E E
|----------------------|------------------------||
|----------------------|-----------------------o||
|----------------------|------------------------||
|----------------------|------------------------||
|-(7)----------------5-|-(5)----------------2--o||
|-(5)--5-5-5-5-5-5-5-3-|-(3)--3-3-3-3-3-3-3-0---||


   Verse
        N.C.                          A5
        PM--------------------------|
    +E  E E E E E E E   E E E E E E E E
||--------------------|-----------------|
||o-------------------|-----------------|
||--------------------|-----------------|
||--------------------|-----------------|
||o-(2)---5---4---2---|-0---2---5-4-2-7-|
||--(0)-0---0---0---0-|---0---0-------5-|


                     G5                     E5
       PM----------|          PM----------|
  +Q   E S S E S S E E   +Q   E S S E S S E E   3x
|----------------------|------------------------||
|----------------------|-----------------------o||
|----------------------|------------------------||
|----------------------|------------------------||
|-(7)----------------5-|-(5)----------------2--o||
|-(5)--5-5-5-5-5-5-5-3-|-(3)--3-3-3-3-3-3-3-0---||


      N.C.                          A5
      PM--------------------------|
  +E  E E E E E E E   E E E E E E E E
|-------------------|-----------------|
|-------------------|-----------------|
|-------------------|-----------------|
|-------------------|-----------------|
|-(2)---5---4---2---|-0---2---5-4-2-7-|
|-(0)-0---0---0---0-|---0---0-------5-|


                     G5             D5 E5
       PM----------|
  +Q   E S S E S S E E   +Q   E E E Q  E
|----------------------|-----------------||
|----------------------|-----------------||
|----------------------|-----------------||
|----------------------|------------7--9-||
|-(7)----------------5-|-(5)--5-5-5-5--7-||
|-(5)--5-5-5-5-5-5-5-3-|-(3)--3-3-3------||


 Bridge
      N.C.                               D5    E5
  Gtr II
       PM------------------------------|
  +E   S  S  E  E  E  E  E  E    E S S E Q  Q  E
|-----------------------------|------------------|
|-----------------------------|------------------|
|-----------------------------|------------------|
|-(9)----------------10-------|----------7--7--9-|
|-(7)-10-10-10-12-14----14-12-|-10-0-0-0-5--5--7-|
|-----------------------------|------------------|
|
| Gtr I
|      PM------------------------------|
| +E   S  S  E  E  E  E  E  E    E S S E Q  Q  E
|-----------------------------|------------------|
|-----------------------------|------------------|
|-----------------------------|------------------|
|-(9)-----------------7-------|----------7--7--9-|
|-(7)--7--7--7--9-10----10--9-|--7-0-0-0-5--5--7-|
|-----------------------------|------------------|


      N.C.                               D5    A5
       PM------------------------------|
  +E   S  S  E  E  E  E  E  E    E S S E Q  Q  E
|-----------------------------|------------------|
|-----------------------------|------------------|
|-----------------------------|------------------|
|-(9)----------------10-------|----------7--7----|
|-(7)-10-10-10-12-14----14-12-|-10-0-0-0-5--5--7-|
|-----------------------------|----------------5-|
|
|      PM------------------------------|
| +E   S  S  E  E  E  E  E  E    E S S E Q  Q  E
|-----------------------------|------------------|
|-----------------------------|------------------|
|-----------------------------|------------------|
|-(9)-----------------7-------|----------7--7----|
|-(7)--7--7--7--9-10----10--9-|--7-0-0-0-5--5--7-|
|-----------------------------|----------------5-|


                     G5                     E5
  Gtrs I, II
       PM----------|          PM----------|
  +Q   E S S E S S E E   +Q   E S S E S S E E
|----------------------|----------------------|
|----------------------|----------------------|
|----------------------|----------------------|
|----------------------|----------------------|
|-(7)----------------5-|-(5)----------------2-|
|-(5)--5-5-5-5-5-5-5-3-|-(3)--3-3-3-3-3-3-3-0-|


   Verse
        N.C.                          A5
        PM--------------------------|
    +E  E E E E E E E   E E E E E E E E
||--------------------|-----------------|
||o-------------------|-----------------|
||--------------------|-----------------|
||--------------------|-----------------|
||o-(2)---5---4---2---|-0---2---5-4-2-7-|
||--(0)-0---0---0---0-|---0---0-------5-|


       PM----------|          PM----------|
  +Q   E S S E S S E E   +Q   E S S E S S E E  3x
|----------------------|-----------------------||
|----------------------|----------------------o||
|----------------------|-----------------------||
|----------------------|-----------------------||
|-(7)----------------5-|-(5)----------------2-o||
|-(5)--5-5-5-5-5-5-5-3-|-(3)--3-3-3-3-3-3-3-0--||


      PM--------------------------|
  +E  E E E E E E E   E E E E E E E E
|-------------------|-----------------|
|-------------------|-----------------|
|-------------------|-----------------|
|-------------------|-----------------|
|-(2)---5---4---2---|-0---2---5-4-2-7-|
|-(0)-0---0---0---0-|---0---0-------5-|


                     G5             D5 E5
  Gtr II
       PM----------|
  +Q   E S S E S S E E   +Q   E E E Q  E
|----------------------|-----------------||
|----------------------|-----------------||
|----------------------|-----------------||
|----------------------|------------7--9-||
|-(7)----------------5-|-(5)--5-5-5-5--7-||
|-(5)--5-5-5-5-5-5-5-3-|-(3)--3-3-3------||
|
| Gtr I
|      PM----------|
| +Q   E S S E S S E E   +Q   E E E Q  E
|----------------------|-----------------||
|----------------------|-----------------||
|----------------------|-----------------||
|----------------------|------------7--9-||
|-(7)----------------5-|-(5)--5-5-5-5--7-||
|-(5)--5-5-5-5-5-5-5-3-|-(3)--3-3-3------||


 Bridge
      N.C.                               D5    E5
       PM------------------------------|
  +E   S  S  E  E  E  E  E  E    E S S E Q  Q  E
|-----------------------------|------------------|
|-----------------------------|------------------|
|-----------------------------|------------------|
|-(9)----------------10-------|----------7--7--9-|
|-(7)-10-10-10-12-14----14-12-|-10-0-0-0-5--5--7-|
|-----------------------------|------------------|
|
|      PM------------------------------|
| +E   S  S  E  E  E  E  E  E    E S S E Q  Q  E
|-----------------------------|------------------|
|-----------------------------|------------------|
|-----------------------------|------------------|
|-(9)-----------------7-------|----------7--7--9-|
|-(7)--7--7--7--9-10----10--9-|--7-0-0-0-5--5--7-|
|-----------------------------|------------------|


      N.C.
       PM------------------------------|
  +E   S  S  E  E  E  E  E  E    E S S E Q  Q   E
|-----------------------------|-------------------|
|-----------------------------|-------------------|
|-----------------------------|-------------------|
|-(9)----------------10-------|-------------------|
|-(7)-10-10-10-12-14----14-12-|-10-0-0-0-9--9--10-|
|-----------------------------|-------------------|
|
|      PM------------------------------|
| +E   S  S  E  E  E  E  E  E    E S S E Q  Q   E
|-----------------------------|-------------------|
|-----------------------------|-------------------|
|-----------------------------|-------------------|
|-(9)-----------------7-------|-------------------|
|-(7)--7--7--7--9-10----10--9-|--7-0-0-0-5--5---7-|
|-----------------------------|-------------------|


       PM--------------------------|
   +E  E E S S E S S E S S   E S S E Q  Q   E
|--------------------------|------------------|
|--------------------------|------------------|
|--------------------------|------------------|
|--------------------------|------------------|
|-(10)---------------------|---------9--9--10-|
|------0-0-0-0-0-0-0-0-0-0-|-0-0-0-0----------|
|
|      PM--------------------------|
|  +E  E E S S E S S E S S   E S S E Q  Q   E
|--------------------------|------------------|
|--------------------------|------------------|
|--------------------------|------------------|
|--------------------------|------------------|
|--(7)---------------------|---------5--5---7-|
|------0-0-0-0-0-0-0-0-0-0-|-0-0-0-0----------|


       PM--------------------------|
   +E  E E S S E S S E S S   E S S E Q  Q   E
|--------------------------|------------------|
|--------------------------|------------------|
|--------------------------|------------------|
|--------------------------|------------------|
|-(10)---------------------|---------9--9--10-|
|------0-0-0-0-0-0-0-0-0-0-|-0-0-0-0----------|
|
|      PM--------------------------|
|  +E  E E S S E S S E S S   E S S E Q  Q   E
|--------------------------|------------------|
|--------------------------|------------------|
|--------------------------|------------------|
|--------------------------|------------------|
|--(7)---------------------|---------5--5---7-|
|------0-0-0-0-0-0-0-0-0-0-|-0-0-0-0----------|


       PM--------------------------|
   +E  E E S S E S S E S S   E S S E Q  Q   E
|--------------------------|-------------------|
|--------------------------|-------------------|
|--------------------------|-------------------|
|--------------------------|-------------------|
|-(10)---------------------|---------9--9--10--|
|------0-0-0-0-0-0-0-0-0-0-|-0-0-0-0-----------|
|
|      PM--------------------------|
|  +E  E E S S E S S E S S   E S S E Q  Q   E
|--------------------------|-------------------|
|--------------------------|-------------------|
|--------------------------|-------------------|
|--------------------------|-------------------|
|--(7)---------------------|---------5--5---7--|
|------0-0-0-0-0-0-0-0-0-0-|-0-0-0-0-----------|


                                             Q=82
       PM--------------------------|
   +E  E E S S E S S E S S   E S S E Q  Q  E    W
|--------------------------|-----------------|--------||
|--------------------------|-----------------|--------||
|--------------------------|-----------------|--------||
|--------------------------|-----------------|--------||
|-(10)---------------------|---------9--9----|--------||
|------0-0-0-0-0-0-0-0-0-0-|-0-0-0-0---------|--------||
|
|      PM--------------------------|
|  +E  E E S S E S S E S S   E S S E Q  Q  E   +W
|--------------------------|-----------------|--------||
|--------------------------|-----------------|--------||
|--------------------------|-----------------|--------||
|--------------------------|-----------------|--------||
|--(7)---------------------|---------5--5----|--------||
|------0-0-0-0-0-0-0-0-0-0-|-0-0-0-0-------0-|-(0)----||


 Interlude
  $
  N.C.
  Gtr III
  E E E E S  S S S  E E   E  E E E S  S S S  Q
|-----------------------|---------------------------|
|-----------------------|---------------------------|
|-----------------------|---------------------------|
|-----9-7-9-10-9-7------|------9-7-9-10-9-7---------|
|---7--------------10-9-|----7--------------10------|
|-0---------------------|-0-------------------------|
|
| Gtr I
|                                               PM|
| W                       H.                +E  S S
|-----------------------|---------------------------|
|-----------------------|---------------------------|
|-----------------------|---------------------------|
|-----------------------|---------------------------|
|-----------------------|---------------------------|
|-0---------------------|-0-----------------(0)-0-0-|


                          G5    A5    D5  E5
  E E E E S  S S S  E E    S  E S +S  E S H
|-----------------------|----------------------|
|-----------------------|----------------------|
|-----------------------|--7--7-9-(9)----------|
|-----9-7-9-10-9-7------|--5--5-7-(7)-7-7-9----|
|---7--------------10-9-|-------------5-5-7----|
|-0---------------------|----------------------|
|
| W                       +W
|-----------------------|----------------------|
|-----------------------|----------------------|
|-----------------------|----------------------|
|-----------------------|----------------------|
|-----------------------|----------------------|
|-0---------------------|-(0)------------------|


  N.C.
  E  E E E S  S S S  E  E     E  E E E S  S S S  Q
|---------------------------|---------------------------|
|---------------------------|---------------------------|
|---------------------------|---------------------------|
|------9-7-9-10-9-7---------|------9-7-9-10-9-7---------|
|----7--------------10--9---|----7--------------10------|
|-0-------------------------|-0-------------------------|
|
|                       PM|                         PM|
| H.                +E  S S   H.                +E  S S
|---------------------------|---------------------------|
|---------------------------|---------------------------|
|---------------------------|---------------------------|
|---------------------------|---------------------------|
|---------------------------|---------------------------|
|-0-----------------(0)-0-0-|-0-----------------(0)-0-0-|


                          G5  A5    D5  E5
  E E E E S  S S S  E E   S E S +S  E S H
|-----------------------|---------------------------||
|-----------------------|---------------------------||
|-----------------------|-7-7-9-(9)-----------------||
|-----9-7-9-10-9-7------|-5-5-7-(7)-7-7-9-----------||
|---7--------------10-9-|-----------5-5-7-----------||
|-0---------------------|---------------------------||
|
| W                       S E S +S  E S Q.   +E
|-----------------------|---------------------------||
|-----------------------|---------------------------||
|-----------------------|-7-7-9-(9)-----------------||
|-----------------------|-5-5-7-(7)-7-7-9----(9)\---||
|-----------------------|-----------5-5-7----(7)\---||
|-0---------------------|---------------------------||


   Chorus
    Q=172
                                                               To Coda
    E5            Em    D           C             N.C.
    Gtrs I, II
            PM|           PM  PM                  PM----------------|
    H    Q  E E   E E E E E E E E   H    Q  E E   E S S E E S S E E E   4x
||--------------|-----------------|-------------|-----------------------||
||o-------------|-----------------|-------------|----------------------o||
||--------------|-----------------|-------------|-----------------------||
||--------------|-5-5-5-4---4---4-|-2----2--2---|-----------------------||
||o-2----2------|-7-7-7-5-0-5-0-5-|-3----3--3p0-|----------------------o||
||--0----0--0-0-|-----------------|-------------|-3-3-3-3-2-2-2-2-1-0---||


 Interlude
  Gtr II
  W               W                    W             E S S E E +E  Q  E
|---------------|--------------------|-------------|--------------------|
|---------------|--------------------|-------------|--------------------|
|---------------|--------------------|-------------|-5-5-5-5-5-(5)-4--4-|
|---------------|--------------------|-------------|--------------------|
|---------------|--------------------|-------------|--------------------|
|---------------|--------------------|-------------|--------------------|
|
| Gtr I
| H    Q  +Q      E S S E E +E  Q  E   H    Q  E E   E S S E E +E  Q  E
|---------------|--------------------|-------------|--------------------|
|---------------|--------------------|-------------|--------------------|
|---------------|--------------------|-------------|--------------------|
|---------------|-5-5-5-5-5-(5)-4--4-|-------------|-7-7-7-7-7-(7)-5--5-|
|-7----7--(7)\--|--------------------|-5----5--5-5-|--------------------|
|---------------|--------------------|-------------|--------------------|


    H    Q  E E   E S S E E +E  Q  E   H    Q  E E
||--------------|--------------------|-------------|
||o-------------|--------------------|-------------|
||--------------|-4-4-4-4-4-(4)------|-------------|
||--5----5--5-5-|---------------7--7-|-4----4--4-4-|
||o-------------|--------------------|-------------|
||--------------|--------------------|-------------|
|
|   H    Q  E E   E S S E E +E  Q  E   H    Q  E E
||--------------|--------------------|-------------|
||o-------------|--------------------|-------------|
||--------------|--------------------|-------------|
||--------------|-5-5-5-5-5-(5)-4--4-|-------------|
||o-7----7--7-7-|--------------------|-5----5--5-5-|
||--------------|--------------------|-------------|


  1.,2.                  3.
  E S S E E +E  Q  E  3x E S S E E +E  Q  E
|---------------------||-----------------------||
|--------------------o||-----------------------||
|-5-5-5-5-5-(5)-4--4--||-5-5-5-5-5-(5)-4--4----||
|---------------------||-----------------------||
|--------------------o||-----------------------||
|---------------------||-----------------------||
|
| E S S E E +E  Q  E  3x E S S E E +E  Q  E
|---------------------||-----------------------||
|--------------------o||-----------------------||
|---------------------||-----------------------||
|-7-7-7-7-7-(7)-5--5--||-7-7-7-7-7-(7)-5-------||
|--------------------o||------------------5----||
|---------------------||-----------------------||


 Harmony Section
  E5                                 B5
  H    H       E  S S E E +E  Q  E   H    H       E  S S E E +E  Q  E
|-----------|----------------------|-----------|----------------------|
|-----------|----------------------|-----------|----------------------|
|-9----9----|--9--9-9-9-9-(9)-7--7-|-----------|--7--7-7-7-7-(7)-7--7-|
|-----------|----------------------|-9----9----|----------------------|
|-----------|----------------------|-----------|----------------------|
|-----------|----------------------|-----------|----------------------|
|
| W           +W                     W           +W
|-----------|----------------------|-----------|----------------------|
|-----------|----------------------|-----------|----------------------|
|-----------|----------------------|-----------|----------------------|
|-9---------|-(9)------------------|-----------|----------------------|
|-7---------|-(7)------------------|-9---------|-(9)------------------|
|-----------|----------------------|-7---------|-(7)------------------|


  D5                                 A5
  H    H       E  S S E E +E  Q  E   H    H       E  S S E E +E  Q  E
|-----------|----------------------|-----------|----------------------|
|-----------|----------------------|-----------|----------------------|
|-9---------|--9--9-9-9-9-(9)-7--7-|-----------|-----------------7--7-|
|------7----|----------------------|-7----7----|--7--7-7-7-9-(9)------|
|-----------|----------------------|-----------|----------------------|
|-----------|----------------------|-----------|----------------------|
|
| W           +W                     W           +W
|-----------|----------------------|-----------|----------------------|
|-----------|----------------------|-----------|----------------------|
|-----------|----------------------|-----------|----------------------|
|-7---------|-(7)------------------|-----------|----------------------|
|-5---------|-(5)------------------|-7---------|-(7)------------------|
|-----------|----------------------|-5---------|-(5)------------------|


  E5                                      B5
  S E. +Q   H       E  S S E E +E  Q  E   H    H       E  S S E E +E  Q  E
|----------------|----------------------|-----------|----------------------|
|----------------|----------------------|-----------|----------------------|
|-7h9--(9)--9----|--9--9-9-9-9-(9)-7--7-|-----------|--7--7-7-7-7-(7)-7--7-|
|----------------|----------------------|-9----9----|----------------------|
|----------------|----------------------|-----------|----------------------|
|----------------|----------------------|-----------|----------------------|
|
| W                +W                     W           +W
|----------------|----------------------|-----------|----------------------|
|----------------|----------------------|-----------|----------------------|
|----------------|----------------------|-----------|----------------------|
|-9--------------|-(9)------------------|-----------|----------------------|
|-7--------------|-(7)------------------|-9---------|-(9)------------------|
|----------------|----------------------|-7---------|-(7)------------------|


  D5                                 A5
  H    H       E  S S E E +E  Q  E   H    H       E  S S E E +E  Q  E
|-----------|----------------------|-----------|----------------------|
|-----------|----------------------|-----------|----------------------|
|-9---------|--9--9-9-9-9-(9)-7--7-|-----------|-----------------7--7-|
|------7----|----------------------|-7----7----|--7--7-7-7-9-(9)------|
|-----------|----------------------|-----------|----------------------|
|-----------|----------------------|-----------|----------------------|
|
| W           +W                     W           +W
|-----------|----------------------|-----------|----------------------|
|-----------|----------------------|-----------|----------------------|
|-----------|----------------------|-----------|----------------------|
|-7---------|-(7)------------------|-----------|----------------------|
|-5---------|-(5)------------------|-7---------|-(7)------------------|
|-----------|----------------------|-5---------|-(5)------------------|


  E5                                B5
  Gtr V
  PM        ~~~~~~~~~~~~~~~~~~~~PM--|                         ~~~~~~~~~~~~PM
  E  E  E E H      +H.      +E  E   E  E  E E  Q.      +E     H.      +E  E
|----------------|----------------|------------------------|----------------|
|-8-12-10-8------|--------------8-|-8-12-10-8--------------|--------------8-|
|-----------7----|-(7)------(7)---|-----------11b12---(11)-|--7-------(7)---|
|----------------|----------------|------------------------|----------------|
|----------------|----------------|------------------------|----------------|
|----------------|----------------|------------------------|----------------|
|
| Gtr II
|           ~~~~~~~~~~~~~~~~~~~~                              ~~~~~~~~~~~~
| E  E  E E H      +H.      +E  E   E  E  E E  H              H.      +E  E
|----------------|----------------|------------------------|----------------|
|----------------|----------------|------------------------|----------------|
|-9-12-11-9------|--------------9-|-9-12-11-9--7-----------|--------------9-|
|-----------9----|-(9)------(9)---|------------------------|--9-------(9)---|
|----------------|----------------|------------------------|----------------|
|----------------|----------------|------------------------|----------------|
|
| Gtr I
| W                +W               W                        +W
|----------------|----------------|------------------------|----------------|
|----------------|----------------|------------------------|----------------|
|----------------|----------------|------------------------|----------------|
|-9--------------|-(9)------------|------------------------|----------------|
|-7--------------|-(7)------------|-9----------------------|-(9)------------|
|----------------|----------------|-7----------------------|-(7)------------|


  D5                                    A5
  PM          ~~~~~~~~~~~~~~~~~~~~~~PM--|          ~~~~~~~~~~~~~~~~~~~~PM
  E  E  E  E  H       +H.       +E  E   E  E  E  E H      +H.      +E  E
|------------------|------------------|-----------------|----------------|
|-8-12-10----------|----------------8-|-8-12-10---------|--------------8-|
|---------12-11----|-(11)------(11)---|---------12-6----|-(6)------(6)---|
|------------------|------------------|-----------------|----------------|
|------------------|------------------|-----------------|----------------|
|------------------|------------------|-----------------|----------------|
|
|             ~~~~~~~~~~~~~~~~~~~~~~               ~~~~~~~~~~~~~~~~~~~~
| E  E  E  E  H       +H.       +E  E   E  E  E  E H      +H.      +E  E
|------------------|------------------|-----------------|----------------|
|------------------|------------------|-----------------|----------------|
|-9-12-11--9--7----|--(7)-------(7)-9-|-9-12-11--9------|--------------9-|
|------------------|------------------|------------7----|-(7)------(7)---|
|------------------|------------------|-----------------|----------------|
|------------------|------------------|-----------------|----------------|
|
| W                   +W                W                 +W
|------------------|------------------|-----------------|----------------|
|------------------|------------------|-----------------|----------------|
|------------------|------------------|-----------------|----------------|
|-7----------------|--(7)-------------|-----------------|----------------|
|-5----------------|--(5)-------------|-7---------------|-(7)------------|
|------------------|------------------|-5---------------|-(5)------------|


  E5                                 B5
  PM         ~~~~~~~~~~~~~~~~~~~~PM--|                          ~~~~~~~~~~~~PM
  E  E  E  E H      +H.      +E  E   E  E  E  E  Q.      +E     H.      +E  E
|-----------------|----------------|-------------------------|----------------|
|-8-12-10---------|--------------8-|-8-12-10-----------------|--------------8-|
|---------12-7----|-(7)------(7)---|---------12-11b12---(11)-|--7-------(7)---|
|-----------------|----------------|-------------------------|----------------|
|-----------------|----------------|-------------------------|----------------|
|-----------------|----------------|-------------------------|----------------|
|
|            ~~~~~~~~~~~~~~~~~~~~                               ~~~~~~~~~~~~
| E  E  E  E H      +H.      +E  E   E  E  E  E  H              H.      +E  E
|-----------------|----------------|-------------------------|----------------|
|-----------------|----------------|-------------------------|----------------|
|-9-12-11--9------|--------------9-|-9-12-11--9--7-----------|--------------9-|
|------------9----|-(9)------(9)---|-------------------------|--9-------(9)---|
|-----------------|----------------|-------------------------|----------------|
|-----------------|----------------|-------------------------|----------------|
|
| W                 +W               W                         +W
|-----------------|----------------|-------------------------|----------------|
|-----------------|----------------|-------------------------|----------------|
|-----------------|----------------|-------------------------|----------------|
|-9---------------|-(9)------------|-------------------------|----------------|
|-7---------------|-(7)------------|-9-----------------------|-(9)------------|
|-----------------|----------------|-7-----------------------|-(7)------------|


  D5
  PM          ~~~~~~~~~~~~~~~~~~~~~~PM-
  E  E  E  E  H       +H.       +E  E
|------------------|------------------|
|-8-12-10----------|----------------8-|
|---------12-11----|-(11)------(11)---|
|------------------|------------------|
|------------------|------------------|
|------------------|------------------|
|
|             ~~~~~~~~~~~~~~~~~~~~~~
| E  E  E  E  H       +H.       +E  E
|------------------|------------------|
|------------------|------------------|
|-9-12-11--9--7----|--(7)-------(7)-9-|
|------------------|------------------|
|------------------|------------------|
|------------------|------------------|
|
| W                   +W
|------------------|------------------|
|------------------|------------------|
|------------------|------------------|
|-7----------------|--(7)-------------|
|-5----------------|--(5)-------------|
|------------------|------------------|


  A5                                B5 D5
 -|          ~
  E  E  E  E H       E  S S E E +E  Q  E
|-----------------|-----------------------||
|-8-12-10---------|-----------------7--7--||
|---------12-6----|--6--6-6-6-7-(7)-------||
|-----------------|-----------------------||
|-----------------|-----------------------||
|-----------------|-----------------------||
|
|            ~
| E  E  E  E H       E  S S E E +E  Q  E
|-----------------|-----------------------||
|-----------------|-----------------------||
|-9-12-11--9------|-----------------7--7--||
|------------7----|--7--7-7-7-9-(9)-------||
|-----------------|-----------------------||
|-----------------|-----------------------||
|
| W                 +Q.       E +E  Q  E
|-----------------|-----------------------||
|-----------------|-----------------------||
|-----------------|-----------------------||
|-----------------|--------------------7--||
|-7---------------|-(7)-------7-(7)-9--5--||
|-5---------------|-(5)-------5-(5)-7-----||


 Bridge
  Q=218
  E5                   F5        N.C.(E)         G5
  Gtr V
   ~~~~~~~~~~
   Q.    +E    H              W
|-------------------------|-------------------------|
|-[8]----(8)--------------|-------------------------|
|-------------------------|-------------------------|
|-------------------------|-------------------------|
|-------------------------|-------------------------|
|-------------------------|-------------------------|
|
| Gtr II
|  ~~~~~~~~~~
|  Q.    +E    Q     E  E    +E  E Q     Q     E  E
|-------------------------|-------------------------|
|-------------------------|-------------------------|
|--9-----(9)--------------|-------------------------|
|----------------------10-|-(10)-----------------12-|
|-----------------------8-|--(8)-----------------10-|
|-------------------------|-------------------------|
|
| Gtr I
|      PM------------|           PM------------|
|  Q   E  S  S E S S E  E    +E  E E S S E S S E  E
|-------------------------|-------------------------|
|-------------------------|-------------------------|
|-------------------------|-------------------------|
|--9-------------------10-|-(10)-----------------12-|
|--7---7--7--7-7-7-7-7--8-|--(8)-7-7-7-7-7-7-7-7-10-|
|-------------------------|-------------------------|


       N.C.(E)         F5        N.C.       D5
    W                         W
|-------------------------|--------------------||
|-------------------------|--------------------||
|-------------------------|--------------------||
|-------------------------|--------------------||
|-------------------------|--------------------||
|-------------------------|--------------------||
|
|  +E  E Q     Q     E  E    +E  E Q    Q   Q
|-------------------------|--------------------||
|-------------------------|--------------------||
|-------------------------|--------------------||
|-(12)-----------------10-|-(10)---------------||
|-(10)------------------8-|--(8)------------0--||
|-------------------------|--------------------||
|
|      PM------------|           PM-------|
|  +E  E E S S E S S E  E    +E  E E  E E E Q
|-------------------------|--------------------||
|-------------------------|--------------------||
|-------------------------|--------------------||
|-(12)-----------------10-|-(10)------------7--||
|-(10)-7-7-7-7-7-7-7-7--8-|--(8)-7-8-10-8-7-5--||
|-------------------------|--------------------||


 Guitar Solo
  E5                            F5        N.C.(E)                                G5
  Gtr II
   |---3---|      |-----3-----|        |----3-----|      |----------3----------|
   Q  Q    Q      Q    Q      Q        Q     Q    Q      E      +E      Q      Q
|----------------------------------|-----------------------------------12-----------|
|---------12-----13---12-----------|--12----12---13-----15b17==(15)r----------13----|
|---------------------12-----------|------------------------------------------------|
|----14----------------------14----|------------------------------------------------|
|-12-------------------------------|------------------------------------------------|
|----------------------------------|------------------------------------------------|
|
| Gtr I
|       PM-----------------|              PM--------------------------------|
|  Q    E    S S  E S    S E     E    +E  E    E    S S  E           S    S E     E
|----------------------------------|------------------------------------------------|
|----------------------------------|------------------------------------------------|
|----------------------------------|------------------------------------------------|
|--9----------------------------10-|-(10)----------------------------------------12-|
|--7----7----7-7--7-7----7-7-----8-|--(8)-7----7----7-7--7-----------7----7-7----10-|
|----------------------------------|------------------------------------------------|


                N.C.(E)                                F5           N.C.                    D5
                                                                                      ~~~~~
    |---------3---------|      |----------3----------|
    E      +E      Q    Q      E      +E      Q      Q        E      +E    E  E      +H
|-----------------12-------------------------12-----------|---------------15---------------------|
|--15b17==(15)r--------13-----15b17==(15)r----------13----|--15b17==(15)r----15b17==(15)r--------|
|---------------------------------------------------------|--------------------------------------|
|---------------------------------------------------------|--------------------------------------|
|---------------------------------------------------------|--------------------------------------|
|---------------------------------------------------------|--------------------------------------|
|
|               PM--------------------------------|                   PM------------------|
|  +E           E    E    S S  E           S    S E     E    +E       E    E  E       E   E Q
|---------------------------------------------------------|--------------------------------------|
|---------------------------------------------------------|--------------------------------------|
|---------------------------------------------------------|--------------------------------------|
|-(12)-------------------------------------------------10-|-(10)----------------------------7----|
|-(10)----------7----7----7-7--7-----------7----7-7-----8-|--(8)------7----8-10-------8---7-5----|
|---------------------------------------------------------|--------------------------------------|


  E5                            F5        N.C.(E)                 G5
                                                         ~~~
   |---3---|      |-----3-----|        |----3-----|
   Q  Q    Q      Q    Q      Q        Q     Q    Q      H
|----------------------------------|-------------20-----19\----------|
|----------------------------19----|--------19-----------------------|
|---------17----------17-----------|--17-----------------------------|
|----16----------16----------------|---------------------------------|
|-14-------------------------------|---------------------------------|
|----------------------------------|---------------------------------|
|
|       PM-----------------|              PM--------------------|
|  Q    E    S S  E S    S E     E    +E  E    E    S S  E  S S E  E
|----------------------------------|---------------------------------|
|----------------------------------|---------------------------------|
|----------------------------------|---------------------------------|
|--9----------------------------10-|-(10)-------------------------12-|
|--7----7----7-7--7-7----7-7-----8-|--(8)-7----7----7-7--7--7-7-7-10-|
|----------------------------------|---------------------------------|


          N.C.(E)                            F5           N.C.       D5
                                                       ~~~~
    |---3----|  |---3---|
    E   E    E  E  E    E    S  S  E    S  S  S  S     H.             +Q
|--------------13h17p==13---13h17p13---17p13-17p13-|-------------------------|
|--13h=17p==13-------------------------------------|--17-------------(17)\---|
|--------------------------------------------------|-------------------------|
|--------------------------------------------------|-------------------------|
|--------------------------------------------------|-------------------------|
|--------------------------------------------------|-------------------------|
|
|         PM---------------------------|                  PM-------|
|  +E     E     E    S    S  E     S S  E     E       +E  E E  E E E   Q
|--------------------------------------------------|-------------------------|
|--------------------------------------------------|-------------------------|
|--------------------------------------------------|-------------------------|
|-(12)---------------------------------------10----|-(10)--------------7-----|
|-(10)----7-----7----7----7--7-----7-7--7-----8----|--(8)-7-8-10-8-7---5-----|
|--------------------------------------------------|-------------------------|


  E5                       F5        N.C.(E)              G5
                                                 ~~~
   E  E  E  E    E  E    E  E     E   E  E  E    H
|-----------------------------|-/15-----14-------------------|
|------------------15------17-|------17----15----------------|
|----16-14-17---16------17----|-----------------16\----------|
|-17--------------------------|------------------------------|
|-----------------------------|------------------------------|
|-----------------------------|------------------------------|
|
|        PM-------------|             PM----------------|
|  Q     E  S S  E  S S  E  E    +E   E  E  S S  E  S S E  E
|-----------------------------|------------------------------|
|-----------------------------|------------------------------|
|-----------------------------|------------------------------|
|--9-----------------------10-|-(10)----------------------12-|
|--7-----7--7-7--7--7-7--7--8-|--(8)--7--7--7-7--7--7-7-7-10-|
|-----------------------------|------------------------------|


         N.C.(E)                  F5          N.C.              D5
    S  S E  S S E    S S E    S S  E     S  S E  S S  E   H
|------------------------------------|-----------------------------|
|--12p=9---12p9-----10p9-----12p9----|--13p=9---12p9----[10]/------|
|--------9------9--------9---------9-|--------9-------9------------|
|------------------------------------|-----------------------------|
|------------------------------------|-----------------------------|
|------------------------------------|-----------------------------|
|
|        PM------------------|                PM--------------|
|  +E    E  E   S S  E   S S  E    E    +E    E  E    E   E   E Q
|------------------------------------|-----------------------------|
|------------------------------------|-----------------------------|
|------------------------------------|-----------------------------|
|-(12)----------------------------10-|-(10)---------------------7--|
|-(10)---7--7---7-7--7---7-7--7----8-|--(8)---7--8---10---8---7-5--|
|------------------------------------|-----------------------------|


  E5                                      B5
   |--3---|  |---3----|     |----3----|
   Q  Q   Q  Q  Q  E  E     Q    Q    Q    S  S  S  S  E  E
|--------16-------17s18--|-----------19---17h19p17-15s12-15-|
|----15/-------18--------|------20--------------------------|
|-16--------19-----------|-21-------------------------------|
|------------------------|----------------------------------|
|------------------------|----------------------------------|
|------------------------|----------------------------------|
|
|                           PM     PM---|
|  W                        E E    E    E  H
|------------------------|----------------------------------|
|------------------------|----------------------------------|
|------------------------|----------------------------------|
|------------------------|-----------------4----------------|
|--2---------------------|-----------------2----------------|
|--0---------------------|--0------0----0-------------------|


  Bb5                                                      N.C.
   |--3--|        |--3--|           |------3------|
   E  E  E  E  E  E  E  E  +Q       Q     Q       Q         Q.        +E
|-13h15p13s12-10-12s13-13-(13)\--|-10----10------10--------10--------(10)---|
|--------------------------------|-13b15-13b15---13b15-----13b15r====(13)\--|
|--------------------------------|------------------------------------------|
|--------------------------------|------------------------------------------|
|--------------------------------|------------------------------------------|
|--------------------------------|------------------------------------------|
|
|                                              PM--------------------|
|  W                                Q          E       S S  E    E E   E
|--------------------------------|------------------------------------------|
|--------------------------------|------------------------------------------|
|--------------------------------|------------------------------------------|
|--3-----------------------------|--3---------------------------------------|
|--1-----------------------------|--1----------1-------1-1--2----1----------|
|--------------------------------|---------------------------------2---1----|


  E5                                B5
  |-3-|  |-3--|       |----3----|    |--3--|
  Q Q Q  Q Q  Q       Q    Q    Q    Q  Q  Q
|------------------|---------------------------|
|-----9-12-9-------|-----------12---15-12------|
|-9----------------|-12------------------------|
|---9--------------|------12-------------------|
|------------12/---|----------------------14/--|
|------------------|---------------------------|
|
|                     PM     PM---|
| W                   E E    E    E  H
|------------------|---------------------------|
|------------------|---------------------------|
|------------------|---------------------------|
|------------------|-----------------4---------|
|-2----------------|-----------------2---------|
|-0----------------|--0------0----0------------|


  Bb5   N.C.
                                                       ~~~
   |---3---|    |-----3-----|      |------3-------|
   Q  Q    Q    Q    Q      Q      Q       Q      Q    H
|-------------------------------|---------19----------19\-----------|
|--------------17---------------|-18b19-----------------------------|
|---------16--------16-----14---|-----------------------------------|
|-14-17-------------------------|----------------16-----------------|
|-------------------------------|-----------------------------------|
|-------------------------------|-----------------------------------|
|
|       PM------------------------------------------------------|
|  Q    E    E  E S    S E    E    E    S    S E    E  E  S S E E
|-------------------------------|-----------------------------------|
|-------------------------------|-----------------------------------|
|-------------------------------|-----------------------------------|
|--3----------------------------|-----------------------------------|
|--1----1----1--1-1----1-1----0-|--1----1----1-1----0--1--0-0-1-0---|
|-------------------------------|-----------------------------------|


  E5                                       B5    Bb5
  Gtr II
   |---3---|    |---3---|      |---3---|    |---3---|
   Q  Q    Q    Q  Q    Q      Q  Q    Q    Q  Q    Q
|-15-15---15---15-14---13---|-13-13---13---13-12---11-|
|---------------------------|-------------------------|
|---------------------------|-------------------------|
|---------------------------|-------------------------|
|---------------------------|-------------------------|
|---------------------------|-------------------------|
|
| Gtr V
|  |---3---|    |---3---|      |---3---|    |---3---|
|  Q  Q    Q    Q  Q    Q      Q  Q    Q    Q  Q    Q
|-12-12---12---12-11---10---|-10-10---10---10--9----8-|
|---------------------------|-------------------------|
|--9--9----9----9--8----7---|--7--7----7----7--6----5-|
|---------------------------|-------------------------|
|---------------------------|-------------------------|
|---------------------------|-------------------------|
|
| Gtr I
|       PM---|       PM---|         PM---|
|  Q    E    E  Q    E    E    Q    E    E  Q    Q
|---------------------------|-------------------------|
|---------------------------|-------------------------|
|---------------------------|-------------------------|
|---------------------------|---------------4s===3----|
|--2------------2-----------|--2------------2s===1----|
|--0----0----0--0----0----0-|--0----0----0------------|


                                        N.C.
                               ~~
   |---3---|    |---3---|
   Q  Q    Q    Q  Q    Q      W
|-11-11---11---11s13---11---|-10----------------|
|---------------------------|-------------------|
|---------------------------|-------------------|
|---------------------------|-------------------|
|---------------------------|-------------------|
|---------------------------|-------------------|
|
|                              ~~
|  |---3---|    |---3---|
|  Q  Q    Q    Q  Q    Q      W
|--8--8----8----8-10----8---|-------------------|
|---------------------------|-------------------|
|--5--5----5----8-10----8---|--7----------------|
|---------------------------|-------------------|
|---------------------------|-------------------|
|---------------------------|-------------------|
|
|       PM---|       PM---|       PM----------|
|  Q    E    E  Q    E    E    Q  E S S E E E E
|---------------------------|-------------------|
|---------------------------|-------------------|
|---------------------------|-------------------|
|--3------------3-----------|--3----------------|
|--1----1----1--1----1----1-|--1--1-1-1-2-1-----|
|---------------------------|---------------2-1-|


  E5                                       B5    Bb5
   |---3---|    |---3---|      |---3---|    |---3---|
   Q  Q    Q    Q  Q    Q      Q  Q    Q    Q  Q    Q
|-15-15---15---15-14---13---|-13-13---13---13-12---11-|
|---------------------------|-------------------------|
|---------------------------|-------------------------|
|---------------------------|-------------------------|
|---------------------------|-------------------------|
|---------------------------|-------------------------|
|
|  |---3---|    |---3---|      |---3---|    |---3---|
|  Q  Q    Q    Q  Q    Q      Q  Q    Q    Q  Q    Q
|-12-12---12---12-11---10---|-10-10---10---10--9----8-|
|---------------------------|-------------------------|
|--9--9----9----9--8----7---|--7--7----7----7--6----5-|
|---------------------------|-------------------------|
|---------------------------|-------------------------|
|---------------------------|-------------------------|
|
|       PM---|       PM---|         PM---|
|  Q    E    E  Q    E    E    Q    E    E  Q    Q
|---------------------------|-------------------------|
|---------------------------|-------------------------|
|---------------------------|-------------------------|
|---------------------------|---------------4s===3----|
|--2------------2-----------|--2------------2s===1----|
|--0----0----0--0----0----0-|--0----0----0------------|


                                       N.C.
                               ~~
   |---3---|    |---3---|
   Q  Q    Q    Q  Q    Q      W
|-11-11---11---11-13---15---|-15---------------------||
|---------------------------|------------------------||
|---------------------------|------------------------||
|---------------------------|------------------------||
|---------------------------|------------------------||
|---------------------------|------------------------||
|
|                              ~~
|  |---3---|    |---3---|
|  Q  Q    Q    Q  Q    Q      W
|--8--8----8----8-10---12---|------------------------||
|---------------------------|------------------------||
|--5--5----5----5--7----9---|--9---------------------||
|---------------------------|------------------------||
|---------------------------|------------------------||
|---------------------------|------------------------||
|
|       PM---|       PM--------------------------|
|  Q    E    E  Q    E    E    E S S E E E S S E E
|---------------------------|------------------------||
|---------------------------|------------------------||
|---------------------------|------------------------||
|--3------------3-----------|------------------------||
|--1----1----1--1----1----1-|--1-1-1-1-0-1-0-0-1-0---||
|---------------------------|------------------------||


   Bridge
    E5               F5        N.C.(E)         G5
    Gtrs I, II
       PM----------|           PM------------|
    Q  E S S E S S E  E    +E  E E S S E S S E  E
||----------------------|-------------------------|
||o---------------------|-------------------------|
||----------------------|-------------------------|
||--9----------------10-|-(10)-----------------12-|
||o-7--7-7-7-7-7-7-7--8-|--(8)-7-7-7-7-7-7-7-7-10-|
||----------------------|-------------------------|


       N.C.(E)         F5        N.C.       D5
       PM------------|           PM-------|
   +E  E E S S E S S E  E    +E  E E  E E E Q     3x
|-------------------------|-----------------------||
|-------------------------|----------------------o||
|-------------------------|-----------------------||
|-(12)-----------------10-|-(10)------------7-----||
|-(10)-7-7-7-7-7-7-7-7--8-|--(8)-7-8-10-8-7-5----o||
|-------------------------|-----------------------||


  E5               F5        N.C.(E)         G5
     PM----------|           PM------------|
  Q  E S S E S S E  E    +E  E E S S E S S E  E
|---------------------|-------------------------|
|---------------------|-------------------------|
|---------------------|-------------------------|
|-9----------------10-|-(10)-----------------12-|
|-7--7-7-7-7-7-7-7--8-|--(8)-7-7-7-7-7-7-7-7-10-|
|---------------------|-------------------------|


       N.C.(E)         F5        N.C.       E5
       PM------------|           PM-------|
   +E  E E S S E S S E  E    +E  E E  E E E Q
|-------------------------|--------------------||
|-------------------------|--------------------||
|-------------------------|--------------------||
|-(12)-----------------10-|-(10)------------9--||
|-(10)-7-7-7-7-7-7-7-7--8-|--(8)-7-8-10-8-7-7--||
|-------------------------|--------------------||


 Bridge
  D5
     PM-------------------------------------------
  Q  E S S E S S E S S   E S S E S S E S S E S S
|----------------------|-------------------------|
|----------------------|-------------------------|
|----------------------|-------------------------|
|-7--------------------|-------------------------|
|-5--5-5-5-5-5-5-5-5-5-|-5-5-5-5-5-5-5-5-5-5-5-5-|
|----------------------|-------------------------|


 -----------------------------
            
Submit corrections

↑ Back to top | Tablatures and chords for acoustic guitar and electric guitar, ukulele, drums are parodies/interpretations of the original songs. You may use it for private study, scholarship, research or language learning purposes only