Home » I » Ice Cube »

Ice Cube - You Know How We Do It Chords

Artists:  A B C D E F G H I J K L M N O P Q R S T U V W X Y Z # 

You Know How We Do It Chords

(ver. 1) Click to play this song!
Ice Cube
[Verse 1]
G|-------------8/10---8-----------------------------|
D|----------8-------------------------8/10---10/11--|
A|----6----------------------------8----------------|
E|--------------------------6-----------------------|
 
[Verse 2]
G|-------------8/10---8-----------------------------|
D|----------8-------------------------8/10---10/11--|
A|----6----------------------------8----------------|
E|--------------------------6-----------------------|
 
Whole song repeats like this
            
Submit corrections

↑ Back to top | Tablatures and chords for acoustic guitar and electric guitar, ukulele, drums are parodies/interpretations of the original songs. You may use it for private study, scholarship, research or language learning purposes only